Acordes de Guitarra » N »Niños con Bombas » Skreamska (Tab)

Skreamska
Niños con Bombas

Letras, Acordes y Tabs para Guitarra, Bajo y Ukulele

  • intro:
    G--------------------------------------------- 
    D----------33-22------------------------------ X 4
    A-0-03-32-3-------0-03-32-2-------------------
    E--------------------------02-----------------
    
    verso i:
    G------------------------                        
    D------------------------ X 3 
    A--------------3---------                    
    E-5-5--3-0-3-5---5-3--0--                    
    
    y termina asi:
    G------------------------
    D------------------------
    A-----3-2-1-0------------
    E-5-5--------------------
    
    verso ii:
    G---------------------------
    D--------------------------- X 1
    A-------------3-------------
    E-5-5-3-0-3-5---5-3-0-------
    
    G-----------------------------------------------------------
    D----------------------7-5-0-77-5---------------------------
    A-------------33-55-77------------7-55-33-55-77------3-2-1-0
    E-5-5-3-0-3-5-----------------------------------5-3-0-------
    
    el verso anterior lo haces x 1
    
    luego de esto:
    vas al intro y lo haces 2 veces
    despues 
  • +
    ¡Colabora con nosotros!
    Envíanos tu versión de esta canción






[Skreamska chords][Skreamska cifra]
© LaCuerda.net · aviso legal · privacidad · es · en · pt · contacto
DINAMICO