Acordes de Guitarra » N »Niña » Sistema Perfecto (Tab)

Sistema Perfecto
Niña

Letras, Acordes y Tabs para Guitarra, Bajo y Ukulele

  •     F#m A#m  B     F#m A#m  B   C#  B        Guitarra 1 Arpegio
    
    Eb|--3---2---3------3---2---3---5---3--|     |----5-----|
    Bb|--3---3---5------3---3---5---7---5--|     |-------7--|
    Gb|--4---4---5------4---4---5---7---5--|     |--7-------|
    Db|--5---4---5------5---4---5---7---5--|     |----------|
    Ab|--5---2---3------5---2---3---5---3--|     |----------|
    Eb|--3---2---3------3---2---3---5---3--| x2  |----------|x10
    
    
    RIFF:
    
    Guitarra 1 Clean
    
    eb|-----------------------------------------------------------------|
    Bb|-----------------------------------------------------------------|
    Gb|-----------------------------------------------------------------|
    Db|------------2-2--------------------------------------------------|
    Ab|--2-2--5-2-------2-2-0-0-2-2-0-0P2-2--2-0-0P-2-2-----2-----------|
    Eb|-----------------------------------------------------------------|
    
  • +
    ¡Colabora con nosotros!
    Envíanos tu versión de esta canción

Letra de Sistema Perfecto
RIFF:
Guitarra 1 Clean
...Se repite otra vez
...Se repite otra vez
Guitarra 2 con Distor
Guitarra 1:
Guitarra 2:
dudas y comentarios: valek2002@hotmail.com

Video de Sistema Perfecto
[]




[Sistema Perfecto chords][Sistema Perfecto cifra]
© LaCuerda.net · aviso legal · privacidad · es · en · pt · contacto