Acordes de Guitarra » N »Nilo Soruco » La Caraqueña (Tab)

La Caraqueña
Nilo Soruco

Letras, Acordes y Tabs para Guitarra, Bajo y Ukulele

  • LAm  SOL     DO      SOL     DO
    Qué lejos estoy, qué lejos estoy
       SOL     DO
    de mi ansiedad,
    SOL        DO
    mi río, mi flor,
             MI           LAm
    mi cielo, llorando estarán
    
    LAm   SOL     DO      SOL       DO
    Pero he de volver, no llores mi amor,
       SOL     DO
    no llores mi amor,
    SOL       DO
    nadie le pondrá
            MI           LAm
    murallas a nuestra verdad
    
    
    SOL               DO
    
  •                               A
    E -12-12-12-------------------12-
    B ------------14-12--------------
    G -------------------14-11-14----
    D -------------------------------
    A -------------------------------
    E -------------------------------
    
                                    F#m
    E -12-12-12------------------------
    B ------------14-12-14-12----------
    G ---------------------------14-11-
    D ---------------------------------     se repiten estos dos una vez mas
    A ---------------------------------
    E ---------------------------------
    
    
    luego
       E                             A          E                   F#m
    E -------------------------------12--14-14-14-12-----12------------
    
  • +
    ¡Colabora con nosotros!
    Envíanos tu versión de esta canción

Letra de La Caraqueña
Qué lejos estoy, qué lejos estoy
de mi ansiedad,
mi río, mi flor,
mi cielo, llorando estarán
Pero he de volver, no llores mi amor,
no llores mi amor,
nadie le pondrá
murallas a nuestra verdad
Nunca el mal duro cien años
ni hubo cuerpo que resista
ya la pagarán, no llores prenda
pronto volveré
larailailailai....
ya la pagarán, no llores prenda
pronto volveré
:)

Video de La Caraqueña
[]




[La Caraqueña chords][La Caraqueña cifra]
© LaCuerda.net · aviso legal · privacidad · es · en · pt · contacto