Acordes de Guitarra » N »Nikita Nipone » Apagar el motor (Tab)

Apagar el motor
Nikita Nipone

Letras, Acordes y Tabs para Guitarra, Bajo y Ukulele

  • E|---4---------|
    B|---4---------|
    G|---4---------|
    D|-------------| x4
    A|-6---6666----|
    E|-4---4774----|
    
    VERSO "calamidad..."
    E|---4---------|      E|---0-0-0-0-|
    B|---4---------|      B|---0-0-0-0-|
    G|---4---------|      G|-1-1-3-1-1-|
    D|-------------| x4   D|-2---------|
    A|-6---6666----|      A|-2---------|
    E|-4---4774----|      E|-0---------|
    
    
    GUITARRA 2
    E|-----|
    B|-5-4-|
    G|-----|
    
  • INTRO(RASGEANDO LA CUERDA MUY DESPACIO EN EL INTRO)
    
    G|-------------|
    D|---6---------| x4
    A|------46-----|
    E|-4---4--6----|
    
    VERSO "calamidad..."
    G|-------------|      G|-------------------|
    D|---6---------| x4   D|-------------------|
    A|------46-----|      A|---7--7-7-7--------|
    E|-4---4--6----|      E|-0---0---0--0------|
    
    VERSO II "son días de vigilia..."
    G|-----|----------------------|       G|---------------|
    D|-----|---6--4-46~-----------|  x2   D|---------------|  x2
    A|-----|-------6------46------|       A|---------77-7--|
    E|-040-|-4---4-------4--6-----|       E|-0-0-246-------|
    
    CORO "por eso hoy voy a..."
    G|----------------------------------------------------------|
    D|----------------------------------------------------------|
    A|-66666668-77777779-66666668-777777779----------66666666---|
    E|--------------------------------------77777778------------|
    
    PUENTE
    G|----------------------|
    D|----------------------| x2
    A|-----------------24---|
    E|-4-4-224-4-4--024-----|
    
    VERSO III "es
  • +
    ¡Colabora con nosotros!
    Envíanos tu versión de esta canción

Letra de Apagar el motor
VERSO "calamidad..."
GUITARRA 2
B|-5-4-|
VERSO II "son días de vigilia..."
VERSO III "estamos en la mira..."
G|-9-9-9-9-4-4-4-4-9-9-9-9-4-4-4-4-3-3-3-3-6-6-6-6-6-6-6-6|
D|-9-9-9-9-6-6-6-6-9-9-9-9-6-6-6-6-4-4-4-4-6-6-6-6-6-6-6-6|
A|-7-7-7-7-6-6-6-6-7-7-7-7-6-6-6-6-4-4-4-4-4-4-4-4-4-4-4-4|
VERSO IV "danos espacio ..."
"reciénte despertaste..."
G|-9-9-9-9-4-4-4-4-9-9-9-9-4-4-4-4-3-3-3-3-6-6-6-6-6-6-6-6|X2
D|-9-9-9-9-6-6-6-6-9-9-9-9-6-6-6-6-4-4-4-4-6-6-6-6-6-6-6-6|
A|-7-7-7-7-6-6-6-6-7-7-7-7-6-6-6-6-4-4-4-4-4-4-4-4-4-4-4-4|
G|-9-9-9-9-4-4-4-4-9-9-9-9-4-4-4-4-9-9-9-9-4-4-4-4-3-3-3-3-6-6-6-6-6-6-6-6|
D|-9-9-9-9-6-6-6-6-9-9-9-9-6-6-6-6-9-9-9-9-6-6-6-6-4-4-4-4-6-6-6-6-6-6-6-6|
A|-7-7-7-7-6-6-6-6-7-7-7-7-6-6-6-6-7-7-7-7-6-6-6-6-4-4-4-4-4-4-4-4-4-4-4-4|
FINAL
GUITARRA 2
B|-5-4-|

Video de Apagar el motor
[]




[Apagar el motor chords][Apagar el motor cifra]
© LaCuerda.net · aviso legal · privacidad · es · en · pt · contacto