Acordes de Guitarra » N »Himnos de futbol » Himno Atlético de Madrid (Tab)

Himno Atlético de Madrid
Himnos de futbol

Letras, Acordes y Tabs para Guitarra, Bajo y Ukulele

  • E||---------------------------------------------------------|
    B||---0-1-1-1-1-1----3-1-0-0-0-0-0----1-0-------0-3-1-0-----|
    G||-2-------------------------------------2-2-2---------2-0-|
    D||---------------------------------------------------------|
    A||---------------------------------------------------------|
    E||---------------------------------------------------------|
    
    [VOZ]
    
    E||---------------------------------------------------------|
    B||---3-0------0-----------0-----0-1------------------------|
    G||----------0---0-----------0-2-----2----------------------|
    D||-0-------------------0-----------------------------------|
    A||---------------------------------------------------------|
    E||---------------------------------------------------------|
    
    
    E||--------------------------------0------------------------|
    B||---1---------------------3-3-3----1-0--------------------|
    G||-----2-------2-------------------------------------------|
    
  • +
    ¡Colabora con nosotros!
    Envíanos tu versión de esta canción

Letra de Himno Atlético de Madrid
[VOZ]
SE REPITE [VOZ]
AHORA [VOZ] CON UN CAMBIO AL FINAL




[Himno Atlético de Madrid chords][Himno Atlético de Madrid cifra]
© LaCuerda.net · aviso legal · privacidad · es · en · pt · contacto