Acordes de Guitarra » N »Neurosis Inc. » Verdum 1916 (Tab)

Verdum 1916
Neurosis Inc.

Letras, Acordes y Tabs para Guitarra, Bajo y Ukulele

  • |-------------------------------------------------------------------|
    |-------------------------------------------------------------------|
    |-7-----7-----7-----5-7-5-3-----3-5-3-2-----0-----2-----2-----2-----| x2
    |---0-0---0-0---0-0---------0-0---------0-0---0-0---0-0---0-0---0-0-|
    |-------------------------------------------------------------------|
    |-------------------------------------------------------------------|
    
    Ritmo 2 -
    |---------------------------------------------------------|
    |---------------------------------------------------------|
    |---------------------------------------------------------| x2
    |-7-----7-----7-----7-10-----8-----8-----8-----8-10-10-10-|
    |---8-8---8-8---8-8------8-7---7-7---7-7---7-7------------|
    |---------------------------------------------------------|
    
    Ritmo 3 (Final)
    |-------------------------------------------------------------------------
    |-------------------------------------------------------------------------
    |-7-----7-----7-----7-----5-----5-----5-----5-----7-----7-----7-----7-----
    |---0-0---0-0---0-0---0-0---7-7---7-7---7-7---7-7---0-0---0-0---0-0---0-0-
    
  • +
    ¡Colabora con nosotros!
    Envíanos tu versión de esta canción

Letra de Verdum 1916
Ritmo 2 -
Ritmo 3 (Final)
(Distorsión a full)
Riff 1 (“Las aves…”)
-0-0--0-0-0--0-0-0-1-1-0-0--0-0-0--0-0-0-1-1-|
Riff 2 Arpeggio (“Miles de tumbas….”) x 2 veces
-2-
Riff 3
|-5-5-5-4-4-3-2-(2)--5-5-5-4-4-3-2-(2)-|
|-3-3-3-2-2-1-0-(0)--3-3-3-2-2-1-0-(0)-|
|-5-5-5-5-5-5-5-4-4-3-2-(2)-|
|-3-3-3-3-3-3-3-2-2-1-0-(0)-|
|-7-7-7-7-7-7-7-10-10-10-9-(9)-|
|-5-5-5-5-5-5-5--8--8--8-7-(7)-|
Riff 4 (“Ellos, jóvenes…”)
Final del Riff 4 -
|-3-3-5-5-5-5-5-5-5-4-4-4-4-4-4-|
|-1-1-3-3-3-3-3-3-3-2-2-2-2-2-2-|
Guitarra 2 - Final del Riff 4
Riff 5 (x 2 veces)
|-22--222--222-1-22-22-2-222-1-22-222-222-3-22-222-222-3-|
-3-
Riff 6
Guitarra 1 - Guitar 1 Guitarra 2 - Guitar 2
|-1-0-2-0-3-3-3-3-3-3-3-3-| |-1-0-2-0-3-3-3-3-3-3-3-3-|
Riff 7 (“Esto no es un cuento….”)
|-3-0-2-3-2-0-0-0-0-0-0-0-0-0-0-|
Final
|-5-5-5-4-4-3-2-|
|-3-3-3-2-2-1-0-|

Video de Verdum 1916
[]




[Verdum 1916 chords][Verdum 1916 cifra]
© LaCuerda.net · aviso legal · privacidad · es · en · pt · contacto