Acordes de Guitarra » N »Navajita Platea » Noches de Bohemia (Tab)

Noches de Bohemia
Navajita Platea

Letras, Acordes y Tabs para Guitarra, Bajo y Ukulele

  • e |----2----------0-5-3-2-0---------      |------3-2-0-------------       |-----------------------3-2------
    B |----3--3---3--------------3--2---      |--2-3--------3--2--0----      |-0-2-3-2-0----------------------
    G |----2----2-----------------------      |------------------------      |------------3-------------------
    D |---------------------------------      |------------------------      |--------------4-2-0-------------
    A |-----------------------------0---      |-------------------2----      |--------------------------------
    E |---------------------------------      |-----------------------        |--------------------------------
    
    
    
    RE                      FA#m
    Noches de bohemia y de ilusion
                Sol(con cejilla)
    yo no me doy a la razón
              LA7              RE
    tú como te olvidaste de eso
          RE            FA#m
    Busco y no encuentro una explicación
          SOL
    solo LA desilusión
          LA7              RE        RE FA#m SIm
    
  • DO                         MIm
    Noches de bohemia y de ilusión
                         FA
    Yo no me voy a la razón
                          DO
    Como te olvidaste de eso
    
    
    SEGUNDO ESTRIBILLO
    
    DO                               MIm
    Busco y no encuentro una explicación
                    FA
    Solo LA desilusión
                                DO
    De que falsos fueron tus besos
    
    (Cambio: DO MIm  LAm)
    
    
    
  • B:   244422
    D#m: 243111
    E:   001220
    F#7: 223242
    G#m: 444664
    F#:  223442
    D#:  343563
    
    [[La canción original está en tono de D mayor.
    Aquí está en tono de B mayor]]
    
    NOCHES DE BOHEMIA Y DE ILUSIÓN
    B**                       D#m**
    YO NO ME DOY A LA RAZÓN
                         E*
    TÚ COMO TE OLVIDASTE DE ESO
               F#7*          B****
    BUSCO Y NO ENCUENTRO UNA EXPLICACIÓN
                                    D#m**
    SOLO LA DESILUSIÓN
    
  • E |----------3--1--0----------------1--0--------------
    B |---1--3-----------3--1--0--0--1--------3--1--0-----
    G |------------------------------------------------2--
    D |---------------------------------------------------
    A |---------------------------------------------------
    E |---------------------------------------------------
    
    
    E |---------------------------------------------------
    B |------0--1--0--------------------------------------
    G |---2-----------2--0--------------------------------
    D |---------------------3--2--0-----------------------
    A |-------------------------------3-----0 ligao 2*3---
    E |---------------------------------------------------
    
    La intro se repite 2 veces entera menos el ( 0 ligao 2*3)
    
    PRIMER ESTRIBILLO
    
    DO                        MIm
    
  • RE                         FA#m
    Noches de bohemia y de ilusión
                         SOL
    Yo no me voy a la razón
                         LA
    Como te olvidaste de eso
    
    
    SEGUNDO ESTRIBILLO
    
    RE                               FA#m
    Busco y no encuentro una explicación
                    SOL
    Solo LA desilusión
                                LA
    De que falsos fueron tus besos
    
    (Cambio: Re Fa#m Sim)
    
    
    
  • Re: 000232
    Fa#m: 244222
    Sol: 320003
    La7: 002020
    Fa#: 244322
    Sim: 224432
    Sol7: 353433
    Fa#7: 242322
    La: 002220
    
    INTRO: 2 veces
    
          (RE)              (FA#m)           (SOL)               (SIm)   <--- 2ª guitarra
    
                           * *                    * *                     *      
    e |----2-----------5-3-2----------      |---------3-2-0----------      |--------------------------------      |
    B |----3-----3--5---------5--3---      |2~~~-2-3-----3-2-------      |0---0-2h3p2-0-------------------      |
    G |----2-------------------------      |------------------------      |0---------------3-0-------------      |
    D |------------------------------      |------------------------      |-------------------4-2-0--------      | 
    A |------------------------------      |------------------------      |--------------------------------      |
    
  • +
    ¡Colabora con nosotros!
    Envíanos tu versión de esta canción

Letra de Noches de Bohemia
Noches de bohemia y de ilusion
Sol(con cejilla)
yo no me doy a la razón
tú como te olvidaste de eso
Busco y no encuentro una explicación
de qué falsos fueron tus besos
Yo ya no sé cómo olvidarte, e-e-e-e-eeeh
como arrancarte de mis adentros
desde que te marchaste
mi vida es un tormento
Yo ya no quiero recordarte, e e e e eeeh
ni siquiera ni un momento
pero llevo tu imagen
graba en mi pensamiento
(los mismos acordes to el rato)
Noches de bohemia y de ilusión
yo no me doy a la razón
tu como te olvidaste de eso
AQUI VAN DOS GUITARRAS, UNA SIGUE HACIENDO LOS ACORDES Y LA SEGUNDA
VA EL PUNTEO Q HE PUESTO ARRIBA
(Y SIGUE IGUAL)
Yo quiero vivir distante, e e e e eeeh
de todo aquello que era nuestro
pero el aire me trae
aromas de recuerdo
No me pidas que me calle, e e e e eeeh
tu no sabes lo que siento
me has hecho una herida
en mi sentimiento
Noches de bohemia y de ilusión
yo no me doy a la razón
tu como te olvidaste de eso
Busco y no encuentro una explicación
de que falsos fueron tus besos

Video de Noches de Bohemia
[]




[Noches de Bohemia chords][Noches de Bohemia cifra]
© LaCuerda.net · aviso legal · privacidad · es · en · pt · contacto