Acordes de Guitarra » M »Música Religiosa » Señor Ten piedad (Tab)

Señor Ten piedad
Música Religiosa

  • Letra y Acordes
    NOTA: Es el canto mas solemne y que acompaña
    la asamblea cantando, la pueden cantar en balada
    lenta, 3/4 o solamente arpegio.
    
    
    SEÑOR TEN PIEDAD
    “Popular”
    
      Em          D        C-B7-Em
    Señor ten piedad de nosotros
      Em          D        C-B7-Em
    Señor ten piedad de nosotros
    
    
      G            D        C-B7-Em
    Cristo ten piedad de nosotros
      G            D        C-B7-Em
    Cristo ten piedad de nosotros
    
    
      Em          D        C-B7-Em
    Señor ten piedad de nosotros
      Em          D        C-B7-Em
    Señor ten piedad de nosotros
  • Letra y Acordes
      G          Bm     C  Am      D7
    Señor ten piedad, Señor ten piedad
      G          Bm     C  Am      D7
    Señor ten piedad, Señor ten piedad.
    
    4/4 85 BPM
    
    G  Bm C D7     G  Bm   C D7
    Cristo ten piedad de nosotros,
           G   Bm   C D7
    ten piedad de nosotros
           G Bm C D7 Em
    Ten piedad
    
      Bm       C             D7
    Señor de nosotros ten piedad.
           G   Bm   C D7
    Ten piedad de nosotros,
           G   Bm   C D7           G
    ten piedad de nosotros, ten piedad.
    
  • Letra y Acordes
    SEÑOR TEN PIEDAD
    
    INTRODUCCION: MIm, LAm, MIm, SI7, MIm.
    
      MIm         LAm      MIm   SI7    MIm
    Señor, ten piedad de noso  -  o  -  tros [BIS]
    SOL           LAm       MIm   SI7    MIm
    Cristo, ten piedad de noso  -  o  -  tros [BIS]
      MIm         LAm      MIm   SI7    MIm
    Señor, ten piedad de noso  -  o  -  tros [BIS]
    
    
    RITMO: BALADA SENCILLA
    ---------------------------------------------------
  • Letra y Acordes
    DO            SOL        LAm
    Señor ten piedad de nosotros
    FA              REm            SOL
    Señor Jesucristo ten piedad
    DO             MI       LAm
    Señor ten piedad de nosotros
    FA              SOL            DO-FA
    Señor Jesucristo ten piedad
    
    DO              SOL        LAm
    Cristo ten piedad de nosotros
    FA              REm            SOL
    Señor Jesucristo ten piedad
    DO             MI         LAm
    Cristo ten piedad de nosotros
    FA              SOL            DO-FA
    Señor Jesucristo ten piedad
    
    DO              SOL       LAm
    Señor ten piedad de nosotros
    
  • Letra y Acordes
    INTRODUCCION: Am G F E7 (2) VECES.
    
       Am                        G        F          E7
    e--12-12-12-12-12------8-12-10-10-----8--8-10--8-7--I
    B--13-13-13-13-13-----10-13-12-12----10-10-10-10-9--I
    G---------------------------------------------------I
    D---------------------------------------------------I
    A---------------------------------------------------I
    E---------------------------------------------------I
    
    NOTA: LA INTODUCCION TAMBIEN LA PUEDEN TRINAR.
    
    
       Am          A7       Dm
    SEÑOR, TEN PIEDAD DE NOSOTROS
       G7         C  E7
    SEÑOR TEN PIEDAD        (2)VECES
    
    
      Am                     G
    
  • Tablatura
         Dm             Gm    Dm   A7  Dm 
    E--------------------------------------
    B--------------------------------------
    G------7----9--10--12----10-10--9-9--7-
    D---7----------------------------------
    A--------------------------------------
    E--------------------------------------
       Señor   Ten piedad  Señor ten piedad
    
         Dm             Gm    Dm   A7  Dm
    E--------------------------------------
    B--------------------------------------
    G------7----9--10--12----10-10--9-9--7-
    D---7----------------------------------
    A--------------------------------------
    E--------------------------------------
       Señor   Ten piedad  Señor ten piedad
    
         F          C          Dm   A7  Dm
    E--------------------------------------
    
  • +
    ¡Colabora con nosotros!
    Envíanos tu versión de esta canción

Letra de Señor Ten piedad
Señor, ten piedad de noso - o - tros [BIS]
Cristo, ten piedad de noso - o - tros [BIS]
Señor, ten piedad de noso - o - tros [BIS]
RITMO: BALADA SENCILLA



© LaCuerda.net · aviso legal · privacidad · contacto