Acordes de Guitarra » M »Música Religiosa » Más cerca, Dios, de ti (Tab)

Más cerca, Dios, de ti
Música Religiosa

Letras, Notas, Punteos, Tablaturas y Acordes de Guitarra (Tabs & Chords)

  • Letra y Acordes
         F
       e-5--5-3-----------------5-3----3------------
       B---6----6-6--3-3----6-5---5--5--5-5---------
       G--5---------3----3-5------5-5-5--5----------
       D-3---------3----3---------------------------
       A--------------------------3-----------------
       E----------6---------------------------------
    
       e-5--5-3----------------3------5-------5-----
       B---6----6-6--3-3---6-5---6--6--6-6--6--6-6--
       G--5---------3-----5------5-5-5--5--5-5--5---
       D-3---------3-------------3--------3---------
       A--------------------------------------------
       E----------6---------------------------------
    
    
        F   C       Bb         F      C
    1. Más cerca, Dios, de Ti quiero estar,
        F   C     Bb       F        C C7 F
       aunque en una cruz me hayan de alzar.
    
  • +
    ¡Colabora con nosotros!
    Envíanos tu versión de esta canción

Letra de Más cerca, Dios, de ti
1. Más cerca, Dios, de Ti quiero estar,
aunque en una cruz me hayan de alzar.
Aún cantaré así: Más cerca, Dios, de Ti,
más cerca, Dios, de Ti, cerca de Ti.
2. Aunque errante voy, en soledad,
cúbrenme Tu amor y Tu bondad.
Aún soñaré estar cerca del santo hogar,
más cerca, Dios, de Ti, cerca de Ti.
3. La senda hallaré que-al cielo va;
En ella Tu bondad me sostendrá.
Y ángeles habrá que me conducirán
más cerca, Dios, de Ti, cerca de Ti.
Estas estrofas siguen los mismos acordes que los anteriores:
4. Y luego al despertar te alabaré.
Humilde, un altar te levantaré.
Allí mi corazón dirá su oración:
más cerca, Dios, de Ti, cerca de Ti.
5. Si astros, luna y sol dejo atrás,
gozoso volaré a ver tu faz.
Ya cantaré así: Más cerca, Dios, de Ti,
más cerca, Dios, de Ti, cerca de Ti.
Letra: Sarah Fuller Flower Adams
Música: Lowell Manson
Saludos!.



© LaCuerda.net · Aviso Legal · Privacidad