Acordes de Guitarra » M »Música Religiosa » El Sacrificio (Tab)

El Sacrificio
Música Religiosa

Letras, Acordes y Tabs para Guitarra, Bajo y Ukulele

  • e-----7-7-7--------------7-7--5--5-5-5--7-7-5----5----------------------5---------------------------
    B--7--------7--8--8-8-8-------------------------7------7-7-5-7---7-7-7-----8-7-5------7-----------
    G---------------------------------------------------------------------------------------6-6----6-6----7-
    D---------------------------------------------------------------------------------------------------------
    A---------------------------------------------------------------------------------------------------------
    E
    
    e---------------------------------------------------------------------------------------------------------
    B---------------------------7--8--7--5------------------------------------------------------------------
    G---6---7-------6--4-----------------------7---6---4--------------------------------------------------
    D---------------------------------------------------------------------------------------------------------
    A---------------------------------------------------------------------------------------------------------
    E---------------------------------------------------------------------------------------------------------
    
    Bm                Em    A
    En La cruz del calvario
                  D F#7/Bm
    fue clavado Jes-u-s
                  Em   F#7
    y todos mis pecad-o-s
    
  • +
    ¡Colabora con nosotros!
    Envíanos tu versión de esta canción

Letra de El Sacrificio
En La cruz del calvario
fue clavado Jes-u-s
y todos mis pecad-o-s
los borro mi Jesus
El Sacrificio que Jesus
hizo en la cruz por ti por mi
es prueba de su amor
que hoy podremos obtener
Ahora vivo seguro
que con el morare
vivire para cristo
y con el reinare
El Sacrificio que Jesus
hizo en la cruz por ti por mi
es prueba de su amor
que hoy podremos obtener
El Sacrificio que Jesus
hizo en la cruz por ti por mi
es prueba de su amor
que hoy podremos obtener
Al final sigue el requinto y se repite 2 veces.
Saludos a todos aya en Acapulco,en especial a
Yazmin, la quiero mucho, bueno hasta pronto.
'Dios los bendiga'




[El Sacrificio chords][El Sacrificio cifra]
© LaCuerda.net · aviso legal · privacidad · es · en · pt · contacto
DINAMICO