Acordes de Guitarra » M »Música Religiosa » Cien ovejas (Tab)

Cien ovejas
Música Religiosa

Letras, Acordes y Tabs para Guitarra, Bajo y Ukulele

  • RE                          MIm LA
    Eran cien ovejas que había en el rebaño,
                           RE
    eran cien ovejas que amante cuidó,
              RE7          SOL   SOLm
    pero una tarde, al contarlas todas,
              RE         SIm      MIm LA         RE   
    le faltaba una, le faltaba una y triste lloró.
    
                 LA               RE
    LAS NOVENTA Y NUEVE DEJO EN EL APRISCO
                LA              RE
    Y POR LAS MONTAÑAS  A  BUSCARLA  FUÉ,
                    RE7               SOL  SOLm
    LA ENCONTRO GIMIENDO, TEMBLANDO DE FRIO,
                  RE         SIm               MIm    
    LA TOMO EN SUS BRAZOS, UNGIO SUS HERIDAS 
        LA     RE
    Y AL REDIL VOLVIO.
    
    
  • LA
    eran cien obejas sim dom#
         DOm          SIm
    que habia en el rebaño
                MI
    eran cien obejas
                 LA
    que amante cuido
    
                 LA
    pero un dia cuando la7
                   RE
    al contarlas todas
               LA F#m         SIm
    le faltaba una le faltaba una
    MI        LA
    y triste lloro re la
    
                   MI
    las noventa y nueve
    
  • e ---3---1---3---1---5---3---0---1---3---0---3---1---
    B ---5---3---5---3---6---5---1---3---5---1---5---3---
    G ---------------------------------------------------
    
    e ---5---3---5---3---7---5---1---3---5---7---3---
    B ---6---5---6---5---8---6---3---5---6---8---5---
    G -----------------------------------------------
    
    e ---5---3---5---3---7---5---7---7---7---8---7---5--
    B ---6---5---6---5---8---6---8---8---8--10---8---6--
    G --------------------------------------------------
    
    e ---1---3---5---7---5---3---0---1---3---5---3---1---
    B ---3---5---6---8---6---5---1---3---5---6---5---3---
    G ---------------------------------------------------
    
    e ---7---5---1---3---0---
    B ---8---6---3---5---1---
    G -----------------------
    
    
  • +
    ¡Colabora con nosotros!
    Envíanos tu versión de esta canción

Letra de Cien ovejas
Eran cien ovejas que había en el rebaño,
eran cien ovejas que amante cuidó,
pero una tarde, al contarlas todas,
le faltaba una, le faltaba una y triste lloró.
LAS NOVENTA Y NUEVE DEJO EN EL APRISCO
Y POR LAS MONTAÑAS A BUSCARLA FUÉ,
LA ENCONTRO GIMIENDO, TEMBLANDO DE FRIO,
LA TOMO EN SUS BRAZOS, UNGIO SUS HERIDAS
Y AL REDIL VOLVIO.
Yo era esa oveja que andaba perdida,
lejos de mi Cristo, lejos de Jesús,
pero un día el Maestro me tendió su mano,
me tomó en sus brazos, ungió mis heridas
y al redil volví.
Esta misma historia vuelve a repetirse,
todavía hay ovejas que extraviadas van,
van por este mundo sin Dios, sin consuelo,
sin Dios, sin consuelo, y sin su perdón.
Tú eres esa oveja que sin darte cuenta
vas por este mundo sin Dios y sin fe,
tu Pastor amante llamando te espera,
sufrió sus heridas, sufrió sus heridas
por salvarte a tí.




[Cien ovejas chords][Cien ovejas cifra]
© LaCuerda.net · aviso legal · privacidad · es · en · pt · contacto