Acordes de Guitarra » M »Música de Películas » Rocky (Tab)

Rocky
Música de Películas

Letras, Acordes y Tabs para Guitarra, Bajo y Ukulele

  • Como ya saben para
    NADIA AIDE MACHUCA GUERRERO
    que es mi amor platonico pero
    dentro de poco sera mi novia
    
    e---------------------3---------------------
    b---------5-----5-5-5-5-5-5-5-5-5-5-5--5-5-5-5-5-5-5---
    g-5-5-5-5---5-5-5-5-5---5-5-4-4-4-4-4--4-4-4-4-4-4-4---
    d----------------------------------------
    a----------------------------------------
    E---------------------------------------
    
    e-------5--5-7-------5-5-7--------------------------|
    b---5-8--------5-5-8-------5-------------5----------|
    g------------------------------7-5-7-5-7------------|
    d---------------------------------------------------|
    a---------------------------------------------------|
    E---------------------------------------------------|
    
    e---------------------------------------------------|
    b--------------------------------------|
    g-5-5-4-4-2-2-0-----------------------------------|
    d---------------3-2---------------------------------|
    a---------------------------------------------------|
    E-----------------------------
  • E|-|---------------------------------------------|
    B|-|---------------0-------0-0-0-0-0-0-0-0-------|
    G|-|-0-0-0-0-0-0-0---0-0-0-----------------------|
    D|-|---------------------------------------------|
    A|-|---------------------------------------------|
    E|-|---------------------------------------------|
    
    E|-|---------------------------------------------|
    B|-|-3-0-0-0-------------------------------------|
    G|-|---------------------------------------------|
    D|-|---------4-4-4-4-4-4-4-4-5-4-4-4-4-4-4-------|
    A|-|---------------------------------------------|
    E|-|---------------------------------------------|
    
    E|-|---------0-----------0-----------------------|
    B|-|---1-3-3-------1-3-3-------------------------|
    G|-|-2---------2-2---------2-1-0-0---------------|
    D|-|-------------------------------3-5-3-5-------|
    A|-|---------------------------------------------|
    E|-|---------------------------------------------|
    
    E|-|---------------------------------------------|
    B|-|------------------------
  • +
    ¡Colabora con nosotros!
    Envíanos tu versión de esta canción






[Rocky chords][Rocky cifra]
© LaCuerda.net · aviso legal · privacidad · es · en · pt · contacto