Acordes de Guitarra » M »Música Clasica » Yepes - Romance (Tab)

Yepes - Romance
Música Clasica

Letras, Acordes y Tabs para Guitarra, Bajo y Ukulele

  •   Em
    e|-7--7--7--7--5--3--3--2--0--0--3--7--12--12--12--12----
    B|--0--0--0--0--0--0--0--0--0--0--0--0---0---0---0---0---
    G|---0--0--0--0--0--0--0--0--0--0--0--0---0---0---0---0--
    D|-------------------------------------------------------
    A|-------------------------------------------------------
    E|-0--------0--------0--------0--------0-----------0-----
    
                     Am                          B7
    e|-10--8---8--7--5--5--7--8--7--8--7--11--8--7----
    B|---0--0---5--5--5--5--5--5--7--7--7---7--7--7---
    G|----0--0---5--5--5--5--5--5--8--8--8---8--8--8--
    D|------------------------------------------------
    A|---------0--------------------------------------
    E|-0----------------0--------7--------7-----------
    
             Em                      B7       Em/G     Em
    e|-7--5--3--3--2--0---2--2--2--2--3--2---0--0--0---0-|
    B|--0--0--0--0--0--0---0--0--0--0--0--0---0--0--0----|
    G|---0--0--0--0--0--0---2--2--2--2--2--2---0--0--0---|
    
  • +
    ¡Colabora con nosotros!
    Envíanos tu versión de esta canción

Letra de Yepes - Romance
Segunda parte una vez
Finaliza con primera parte(solo una vez):




[Yepes - Romance chords][Yepes - Romance cifra]
© LaCuerda.net · aviso legal · privacidad · es · en · pt · contacto
DINAMICO