Acordes de Guitarra » M »Molotov » Que no te haga bobo Jacobo (Tab)

Que no te haga bobo Jacobo
Molotov

  • Tablatura
    G *--------------------------------------------------------
    D *--0h2---------------------------------------------------
    A *--------------------------------------------------------
    E *------0---12/---0-3-0---12/---0-0-0---12/---0-3-4-5-3---
    
    G *--------------------------------------------------------*
    D *--0h2---------------------------------------------------*
    A *--------------------------------------------------------*
    E *------0---12/---0-3-0---12/---0-0-0---12/---0-5-4-2-1---* 2 veces
    
    
    (0:21) (2 veces)
    G *-----------------------------------------------------------------------*
    D *-0h2---------------------------------0h2-------------------------------*
    A *-----------------------------------------------------------------------*
    E *-----0---0-3-0---0-0-0---0-3-4-5-3-------0---0-3-0---0-0-0---0-5-4-3-1-*
    
    Ya todos sabemos por qué nos hacemos a todos nos lleva a unos mas a otros menos
    A todos nos tiene muriéndonos de hambre ya todos sabemos quién es el culpable
    A ricos, a pobres, a chicos, a grandes a todos nos vino a poner en la madre
    
  • Tablatura
    b= bend         h= hammer
    r= release      p= pull
    /= slide up     x= palm mute
    \= slide down   
    ~= vibrato
    
    Esta canción fue algo dificil de sacar, asi que puedo tener varios 
    errores pero la trancripción suena bien para mi.
    
    INTRO: Esta parte es algo dificil, necesitaras un poco de practica.
           Tambien se podria usar otra guitarra que toque los slides.
           Solo escucha el cd para aprender el ritmo. 
    
    E|---------------------------------------------|
    B|---------------------------------------------|
    G|---------------------------------------------|
    D|---------2/6\-2-5-2--2/6\-2-2-2/6\-x-5-6-7-x-|
    A|-5h7r0---2/6\-2-5-2--2/6\-2-2-2/6\-x-5-6-7-x-|
    E|---------x/x\-0-3-0--x/x\-0-0-x/x\-0-3-4-5-0-|
    
    E|---------------------------------------------|
    B|---------------------------------------------|
    G|---------------------------------------------|
    D|---------2/6\--2-5-2-2/6\-2-2-2/6\-x-7-6-5-x-|
    A|-5h7r0---2/6\--2-5-2-2/6\-2-2-2/6\-x-7-6-5-x-|
    E|---------x/x\--0-
  • Tab p/Bajo
    Intro (con Slap y Pop)
    G|-9s--------7-|-----5-----3-|
    D|-----9p7h9s--|-5h7s--3h5s--|
    A|-------------|-------------|
    E|-------------|-------------|
    
    Verso
    G|------------------|--------------------|------------------|--------------------|
    D|------------------|--------------------|------------------|--------------------|
    A|------------------|--------------------|------------------|--------------------|x4 
    E|-0--0x---0--3--2--|-2-0--0x--0-3-4-5-3-|-0--0x---0--3--2--|-2-0--0x---0-5-4-3~-|
    
    G|------------------|--------------------|
    D|------------------|--------------------|
    A|------------------|--------------------| X2
    E|-0--0--3~--0-3-2x-|-0-3-2x---0-3-2-3~--|
    
    Puente
    G|---------------|---------------|-------------|-------------|
    D|---------------|-----------2~--|-------------|-------0--2--|
    A|-2-0-2-0-2-5~--|-2-0-2-0-2-----|-2-0-2-0-2--0|-2--4--------| X2
    E|---------------|---------------|-------------|-------------|
    
    Segundo Verso
    G|------------------|------------
  • +
    ¡Colabora con nosotros!
    Envíanos tu versión de esta canción





© LaCuerda.net · aviso legal · privacidad · contacto