Acordes de Guitarra » M »Miriam Hernandez » Huele a peligro (Tab)

Huele a peligro
Miriam Hernandez

Letras, Notas, Punteos, Tablaturas y Acordes de Guitarra (Tabs & Chords)

  • Letra y Acordes
    INTRO         SOLm  FA  RE  SOLm
             SIb  FA  RE  SOLm  
               MIb  FA  SOLm
    
         SOLm                     SOLm/FA            SIb
    Ese abrazo, que nos damos los dos cuando nos saludamos
        DOm                     FA                  SIb    LAb SIb
    Ese beso, que se escapa de mí cuando nos encontramos
              MIb  FA        SIb  SOLm
    Huele a peligro estar contigo
              DOm 
    Existe un algo entre los dos 
          FA            SIb                  DOm RE 
    esa manera de sentir que no es de amigos
    
    Ese rato cuando hablamos los dos esquivando miradas
    que pensamos, que la gente está ciega, que al fin la engañamos
    Huele a peligro hablar contigo
    porque olvidamos que hace tiempo
    cada uno de los dos ya tiene un nido
    
  • Tablatura
         Gm                           Cm
         Q.       E  E  E  E  E       Q.     E  E  E  E  E
    E||--------------------------|--------------------------|
    B||---------1s3--------------|--------------------------|
    G||--3-----------5--3--2-----|--3s5------5--3-----------|
    D||-----------------------5--|-----------------7--5--3--|
    A||--------------------------|--------------------------|
    E||--------------------------|--------------------------|
    
    
        Eb           F7      Bb
        H.           Q       Q.     E  E  E  E  E
    ----------------------|------------------------|
    ----------------------|--3------6--4--3--------|
    ----------------------|------------------5--3--|
    --3s5------------7----|------------------------|
    ----------------------|------------------------|
    ----------------------|------------------------|
    
    
    
  • +
    ¡Colabora con nosotros!
    Envíanos tu versión de esta canción

Letra de Huele a peligro
Ese abrazo, que nos damos los dos cuando nos saludamos
Ese beso, que se escapa de mí cuando nos encontramos
Huele a peligro estar contigo
Existe un algo entre los dos
esa manera de sentir que no es de amigos
Ese rato cuando hablamos los dos esquivando miradas
que pensamos, que la gente está ciega, que al fin la engañamos
Huele a peligro hablar contigo
porque olvidamos que hace tiempo
cada uno de los dos ya tiene un nido
Huele a peligro
el sólo hecho de acercarme a conversarte
con el pretexto de que de algo quiero hablarte.
Un solo paso en falso
y nada ya nos puede detener.
Huele a peligro
ese deseo que se esconde en la mirada.
El fuego atroz de una pasión desesperada
esa inquietud alborotada
con el hambre retrasada.
Huele a peligro...
Huele a peligro
el sólo hecho de acercarme a conversarte
con el pretexto de que de algo quiero hablarte.
Un solo paso en falso
y nada ya nos puede detener.
Huele a peligro
ese deseo que se esconde en la mirada.
El fuego atroz de una pasión desesperada
esa inquietud alborotada
con el hambre retrasada.
Huele a peligro...

[ver todas las canciones]


© LaCuerda.net · Aviso Legal · Privacidad