Acordes de Guitarra » M »Miranda » Perfecta (Tab)

Perfecta
Miranda

Letras, Acordes y Tabs para Guitarra, Bajo y Ukulele

  • C
    
    ESTROFAS:
    
    C                 G
    Tan pronto yo te vi
    Am               F
      No pude descubrir
                       G           Am        Am
    El amor a primera vista no funciona en mí
    F            G            C
    Después de amarte comprendí
    
    C                   G
    Que no estaría tan mal
    Am                  F
      Probar tu otra mitad
                             G           Am       Am
    No me importó si arruinaríamos nuestra amistad
    F           G              C
    
  • C                 G
    Tan pronto yo te vi
    Am             F
    no pude descubrir
                       G           Am
    el amor a primera vista no funciona en mí
    F            G            C
    después de amarte comprendí
    
    C                   G
    Que no estaría tan mal
    Am              F
    probar tu otra mitad
                             G             Am
    no me importo si arruinaríamos nuestra amistad
    F           G            Am
    no me importo ya que más da
    
    
    CORO
    
  • comprendi
    G|--------|--------|-----------|---------|
    D|--------|--------|-----------|---------|
    A|--3---3-|-3--5---|--5--------|---------|
    E|----3---|--3---3-|-3-3-5-0-5-|-51-1-1--|
    
    no me importo
    G|-------------|--------|-----------|
    D|-------------|--------|-----------|
    A|-----3-------|--------|---3-------|
    E|--3h5--1-1-3-|-35-5-5-|-05--1-1-3-|
    
    eramos tan buenos amigos
    G|--------|-------|-------|-------|---------|
    D|--------|-------|-------|-------|---------|
    A|--------|-------|-------|-------|---------|
    E|--0-3-5-|-0-3-5-|-0-3-5-|-0-3-5-|-55-0-3--|
    
    me aproveche
    G|--------|-------|-------|---------|
    D|--------|-------|-------|---------|
    A|--5-----|-5-----|-5-----|---------|
    E|----0-3-|---0-3-|---0-3-|-03-0-5--|
    
    apesar de que
    G|--------|--------|-------|--------|
    D|--------|--------|-------|--------|
    A|--------|--------|-------|--------|
    E|--0-3-5-|-50-3-5-|-0-3-5-|-0-5-3--|
    
    cuando caimos en
    G|--------|-------|-------|-------|
    D|--------|-------|-------|-------|
    A|--5-----|-5-----
  • +
    ¡Colabora con nosotros!
    Envíanos tu versión de esta canción

Letra de Perfecta
Tan pronto yo te vi
no pude descubrir
el amor a primera vista no funciona en mí
después de amarte comprendí
Que no estaría tan mal
probar tu otra mitad
no me importo si arruinaríamos nuestra amistad
no me importo ya que más da
Eramos tan buenos amigos hasta hoy
que yo pobre tu desempeño en el amor
me aproveche que habíamos tomado tanto
fuiste dejando y te agarre
a pesar de saber que estaba todo mal
lo continuamos hasta juntos terminar
cuando caímos en lo que estaba pasando
te seguí besando y fue
te adoraría lo que dura la eternidad
debes ser perfecta para, perfecto para
perfecto para mí, mi amor,
como fue que de papel cambie,
eras mi amiga y ahora eres mi mujer
debes ser perfectamente, exactamente
lo que yo siempre soñé...
El tiempo que paso
supo aun mejor
nos conocíamos de antes y sabíamos
lo que queríamos los dos
Entonces el amor,
nos tiene de rehén,
seré tu eterna enamorada y te aseguro que
todas las noches te amaré




[Perfecta chords][Perfecta cifra]
© LaCuerda.net · aviso legal · privacidad · es · en · pt · contacto