Acordes de Guitarra » M »Miguel Inzunza » Mala Mujer (Tab)

Mala Mujer
Miguel Inzunza

Letras, Acordes y Tabs para Guitarra, Bajo y Ukulele

  • |----------------------------------------0--------------------------|
    |----------5-----3----1----0---------------0------------------------|
    |----------------------------0--2------2----2-----2------2--1-------|
    |--------5-----4----2----2------------3----------------2------------|
    |------------------------------------2---------------2--------------|
    |-3s5---------------------------0-----------------0---------0-------|
    
    
    |---------5----3----1---0------------0---1--------------------------|
    |-------------------------2--------3-----3---3----------------------|
    |-------5----4----2---2----------2-------2-----2--------------------|
    |------------------------------3---------3--------------------------|
    |----------------------------2--------------------------------------|
    |-3s5---------------------------------------------------------------|
    
    
    |-------------0-------------------------------------------------|
    |-------0----------1--------------------------------------------|
    |----2-----2----2----2-----------2------2---1-------------------|
    |--3---------------------------2------2-------------------------|
    
  • +
    ¡Colabora con nosotros!
    Envíanos tu versión de esta canción

Letra de Mala Mujer
El amor no tiene número de cuenta
ni puede firmarse en blanco el corazón
a la belleza, de ella
El amor no es el juguete de la nena
no es el titere guardado en el cajon
de las muñecas de ella
no sigas, no seas parte de la lista
podrias ser tu, madera de una nueva cruz
mala mujer animal, que se alimenta de mi soledad
un paso mas y seras una historieta para conversar
mira rie calla y finje ser la victima de la inocencia
pero si te tiene cerca, va a matarte la tristeza
mala mujeeeeeeer... eeehh
(en esta parte se transporta el Am Em Am6 quedando el bajeo en
la cuarta cuerda, 7o 5o y 4o traste con las notas mencionadas
despues vuelve a las notas normales)
miente como las mujeres de novela
pero la verdad se esconde en la mirada de la fiera
que espera
maldita la noche en que te di la vida
fruta, veneno que no tiene cura
locura que va, del manicomio al funeral
mala mujer es rubi piedra preciosa pero piedra al fin
mira rie calla y finje ser la victima de la inocencia
pero si te tiene cerca, va a matarte la tristeza
mala mujeeeeeeer... eeehee mala mujeeeeeeeeeeeeer
(aquí el bajeo es con la 6a en Dm y Asus2)
(acá también se transporta)
se despide sin dejar ninguna huella
pero vuelve cuando el frio aprieta el nudo de su ausencia
y amarás ese dolor
de tener envenenado el corazón.
GLOSARIO
B|--1--|
G|--2--|
D|--2--|
B|--1--|
G|--2--|
D|--2--|
E|--3--|
B|--1--|
G|--2--|
D|--2--|
E|--2--|
B|--3--|
G|--2--|
E|--2--|
e|--1--|
B|--3--|
G|--2--|
e|--1--|
B|--3--|
G|--2--|
E|--3--|
B|--1--|
D|--2--|
A|--3--|
G|--2--|
D|--2--|
A|--2--|
G|--1--|
D|--2--|
A|--2--|
B|--3--|
G|--2--|
E|--2--|
*Am
e|--8--|
B|--5--|
G|--5--|
D|--7--|
*Em
e|--7--|
B|--5--|
G|--4--|
D|--5--|
*Am6
e|--5--|
B|--5--|
G|--5--|
D|--4--|
Asus2(maj7)
G|--2--|
D|--2--|
B|--1--|
G|--2--|
D|--0--|
E|--1--|
G|--2--|
D|--0--|
A|--2--|
e|--1--|
G|--2--|




[Mala Mujer chords][Mala Mujer cifra]
© LaCuerda.net · aviso legal · privacidad · es · en · pt · contacto
DINAMICO