Acordes de Guitarra » M »Miguel Gallardo » Una lágrima por tí (Tab)

Una lágrima por tí
Miguel Gallardo

  • Tablatura
         Bb                  Gm         Bb   D#
    e --------------------------------------------
    B ---------6--------------------6-6-----------
    G ---7-8-7------7-8-7-----7-8-7-----7-8-7-----
    D --------------------8-------------------8---
    A --------------------------------------------
    E --------------------------------------------
          Cm    D#    Cm   D#  Cm   D#  Bb  F
    e --------------------------------------------
    B ------6---8-----6----------6---8-----6------
    G ----8---8-----8---8--5---8---8-----8--------
    D --------------------------------------------
    A --------------------------------------------
    E --------------------------------------------
    
    
    
                       Bb                         Dm
    Si algún día fui feliz y aprendí lo que es amar
                             Gm      Bb            Cm   D#
    
  • +
    ¡Colabora con nosotros!
    Envíanos tu versión de esta canción

Letra de Una lágrima por tí
Si algún día fui feliz y aprendí lo que es amar
desde el principio hasta el fin... fue por tu amor
y lo iluminó tus ojos... fue por tu amor
Si aposté todo por ti y jugué tan de verdad
que hasta me olvidé de mi... fue por tu amor
Pero a ti te daba igual y quisiste ser feliz
con otro amor
Hoy me llamas otra vez suplicándome volver
porque te engañó la vida
Hoy que ya no puedo yo
que tu herida la cerró el amor de otra mujer
Pero al escuchar tu voz
casi a punto de llorar, repetir que te ha ido ma...aaal
brota de mi corazón
una lágrima por ti,
una lágrima por ti
Si te vi partir sin mi, si confieso que lloré
y me quise hasta morir... fue por tu amor
Si mi corazón fue cruel y queriéndose vengar
hizo daño sin querer... fue por tu amor
Si aprendí a sobrevivir, a olvidar, a sonreír
y a encontrar un nuevo amor... fue por tu amor
Pero a ti te daba igual, tú seguías muy feliz
con tu otro amor
Hoy me llamas otra vez suplicándome volver
porque te engañó la vida
Hoy que ya no puedo yo
que tu herida la cerró el amor de otra mujer
Pero al escuchar tu voz
casi a punto de llorar, repetir que te ha ido ma...aaal
brota de mi corazón
una lágrima por ti,
una lágrima por ti



© LaCuerda.net · aviso legal · privacidad · contacto
DINAMICO