Acordes de Guitarra » M »Miguel Gallardo » Saldré a buscar al amor (Tab)

Saldré a buscar al amor
Miguel Gallardo

  • Tablatura
           Gm     Dsus4 Gm     Bb        F  Bb  F
    
    e -----3-2-3-2-3--5-6------6-5-6-5-6-8--10---------
    B ---3-------------------6-------------------------
    G -------------------------------------------------
    D -------------------------------------------------
    A -------------------------------------------------
    E -------------------------------------------------
    
          F    Bb    F    Bb   Dm   Gm  D Gm  D Gm
    
    e ---15-13------15-13------8-----------------------
    B ---------15---------15-----11-8---11-8--11-8-----
    G -------------------------------------------------
    D -------------------------------------------------
    A -------------------------------------------------
    E -------------------------------------------------
    
    
    VERSO
    
  • +
    ¡Colabora con nosotros!
    Envíanos tu versión de esta canción

Letra de Saldré a buscar al amor
VERSO
Saldré a buscar al amor
con las uñas, con los dientes
saldré a buscar al amor
que no sea indiferente
Saldré a buscar al amor
a ese amor que a mi me quiera
porque yo quiero a ese amor
que aunque me cueste, amor sea..., Ese amor
Amor, amor, amor, amor
amor, amor, amor, amor
saldré a buscarte a donde quieras
saldré a buscarte amor aunque me hieras
Amor, amor, amor, amor
amor, amor, amor, amor
saldré a buscarte mientras pueda
saldré a buscarte amor aunque me duelas
VERSO
Saldré a buscar al amor
Porque aún me queda ternura
saldré a buscar al amor
con un grito de aventura
Saldré a buscar al amor
a ese amor que siendo tierno
tenga la fuerza del mar
y el deseo de los tiempos..., A ese amor
Amor, amor, amor, amor
amor, amor, amor, amor
saldré a buscarte a donde quieras
saldré a buscarte amor aunque me hieras
Amor, amor, amor, amor
amor, amor, amor, amor
saldré a buscarte mientras pueda
saldré a buscarte amor aunque me duelas



© LaCuerda.net · aviso legal · privacidad · contacto