Acordes de Guitarra » M »Miguel Gallardo » Mientras te amo (Tab)

Mientras te amo
Miguel Gallardo

  • Tablatura
          G           D7         D7         G         G          D7
    
    e ||--------10-10-8----|-----8-8-11-11-10-----|---------10-10-8------|
    B ||--11-11------------|----------------------|---11-11--------------|
    G ||-------------------|----------------------|----------------------|
    D ||-------------------|----------------------|----------------------|
    A ||-------------------|----------------------|----------------------|
    E ||-------------------|----------------------|----------------------|
    
    
           D              D7
    
    e ||---10-11-8-10-6-8-------------------------||
    B ||------------------10-11-8-10-6-8----------||
    G ||---------------------------------9-10-7---|| 2 VECES
    D ||------------------------------------------||
    A ||------------------------------------------||
    E ||------------------------------------------||
    
         Gm
    
  • +
    ¡Colabora con nosotros!
    Envíanos tu versión de esta canción

Letra de Mientras te amo
Mientras te amo
Se olvidarme del dolor
Y sentir todo el calor
de tus caricias
Soy, un gorrión sin libertad
Atrapado entre tu piel
y tu sonrisa
Mientras te amo
Me siento bueno
Y creo de nuevo
En la vida
Me das la fantasía
Me llenas de armonía
Me haces más humano
Mi amor mientras te amo
Mientras te amo
tras un día agotador
sé apreciar todo el valor
de estar contigo
Sé, comprenderme un poco más
y hasta puedo perdonar
a mi enemigo
Mientras te tengo
Soy generoso
y amo con fuerza
a la vida
Me das la fantasía
Me llenas de armonía
Me haces más humano
Mi amor mientras te amo
Alcanzo el cielo con mis manos
Huye de mi la soledad
Rompo la cárcel de mi mente
Y sé volar Y sé volaaaar........
* EL INTRO SUBE UN TONO LO MISMO LOS ACORDES DEL CORO
Me das la fantasía
Me llenas de armonía
Me haces más humano
Mi amor mientras te amo
Me das la fantasía
Me llenas de armonía
Me haces más humano
Mi amor mientras te amo
REPITE HASTA EL FINAL
los acordes que se usan son:



© LaCuerda.net · aviso legal · privacidad · contacto
DINAMICO