Acordes de Guitarra » M »Miguel Cassina » Cristo te exalto (Tab)

Cristo te exalto
Miguel Cassina

  •   A         Bm7
    cristo te exalto
     E         D   A
    cristo te ado-ro
    F#m7                Bm7
    porque tu eres mi señor
    B7                            E
    solo a ti daré la gloria y honor
    
    coro
    
        A  C#m7        D
    Gloriosa es tu presencia
         Bm7 E         C#m7
    me cubre y me da paz
    F#sus4  F#         Dm/F
    mi ser siempre proclamará
             Bm7                E
    que sólo tu eres digno de adorar
    
    
  • Q pex people
    
    
    1:11                  1:18          1:26        1:31        1:39
    
    e |------------------|-------------|------------|----------|--------------|
    B |------------------|-------------|------------|----------|--------------|
    G |------------------|-------------|------------|----------|--------------|
    D |-7/9-7------------|-11-9-----7b-|------------|-11/9-7h9-|-77-77-x2-6b--|
    A |------8/9-7-7h9-7-|-----12-9b---|-7-7-7/9-7b-|-----9----|--------------|
    E |------------------|-------------|-5-5--------|----------|--------------|
    
                                                                 |..pm..|
    
    
    1:53          2:19          2:25      2:32           2:53
    
    
    e |----------|-------------|---------|-------------|----------------------|
    B |----------|-------------|---------|-------------|-9-11-7-6-------------|
    G |----------|-------------|---------|-------------|-9-11-7-6-------------|
    D |-77-77-76-|--7-7--9-7-6-|-7-7-7-6-|-7-7-77-6-76-|----------------------|
    A |----------|-7----------
  • +
    ¡Colabora con nosotros!
    Envíanos tu versión de esta canción

Letra de Cristo te exalto
cristo te exalto
cristo te ado-ro
porque tu eres mi señor
Gloriosa es tu presencia
me cubre y me da paz
mi ser siempre proclamará
que sólo tu eres digno de adorar
Gloriosa es tu presencia
me cubre y me da paz
mi ser siempre proclamará
que sólo tu eres digno de adorar
ESTA ES MI SEGUNADA COLABORACIÓN QUE LES SEA DE BENDICION




[Cristo te exalto chords][Cristo te exalto cifra]
© LaCuerda.net · aviso legal · privacidad · es · en · pt · contacto