Acordes de Guitarra » M »Miel San Marcos » Todo es para él (Tab)

Todo es para él
Miel San Marcos

Letras, Acordes y Tabs para Guitarra, Bajo y Ukulele

  • G--------------------------------------------
    D--------------------------------------------
    A--------------------------------------------
    E-12-12-12-7-8-8-8-7-9-9-7-9-----------------
    
    LA 5TA VES ES: D/EEEE
    
    E-10s12-12-12-12-----------------------------
    
    GUITAR:ESTE SE HACE TOCANDO LAS QUINTAS Y SE REPITE 4 VECES
    e--------------------------------------------
    B--------------------------------------------
    G--------------------------------------------
    D-9-9-9--4-5-5-5--4-7-7--4-7-----------------
    A-7-7-7--2-3-3-3--2-5-5--2-5-----------------
    E--------------------------------------------
    LA 5TA VES ES
    
    A-7-9-9-9-9---------------------------------
    E-5-7-7-7-7---------------------------------
    
  • [E-E-E B-C-C, A-C-D-D, B-D-] X4
    Em7 Em7 Em7 Em7
    
    Estrofa:
                     Em7                     Cadd2
                        Toda mi vida es para Él,
                     Em7                        Cadd2
                       Toda mi alabanza es para Él,
    Cadd2 Dadd2
                 Mi cancion, devocion y mis fuerzas,
    Cadd2        Cadd22           [E-E-E B-C-C, A-C-D-D, B-D-B-D] X2
        Y mi adoracion, es para Él]
    
                               Cadd2        Cadd2         Em7 Dadd2
                          2da. Vez[ Y Adoracion, es para Él]
    
    Coro:
                                 Gadd2          Cadd2
                                [Canto para Él, danzo para Él,
                                  Em7                          Cadd2
    
  • G---------------------------------|----------|
    D---------------------------------|----------|
    A-7-7-7-------0-------------------|7--7-7-7-7|
    E-------7-8-8---8-10-10-8-10-8-10-|----------|
    
    Verso 1:
    Em                      C
       Toda mi vida es para El
    Em                          C
       Toda mi alabanza es para El
    C-D
          Mi canción devoción y mis fuerzas
    C             G          Em
      Y mi adoración es para El
    
    Intro: x2
    
    G---------------------------------|----------|
    D---------------------------------|----------|
    A-7-7-7-------0-------------------|7--7-7-7-7|
    
  • Intro (x 4):                       Entrada a estrofa
    G---------------------------------|---------|
    D---------------------------------|---------|
    A-7-7-7-------0-------------------|7-7-7-7-7|
    E-------7-8-8---8-10-10-8-10-8-10-|---------|
    
    Toda mi vida es para EL...
    G-----------------------------------------------------|
    D-----------------------------------------------------|
    A-7-7-7-----7---7-7-----7----3-3-3-----3---3-3------3-|
    E-------7-9---------7-9------------3-5----------3-5---|
    
    Mi canción devoción y mis fuerzas...
    G-----------------------------------------------|
    D-----------------------------------------------|
    A-3-5-5-5-5-5-5-5-5-5-5-5-5-5-5--3-3-3-3-3-3----|
    E--------------------------------------------(3)|
    
    Se repite intro(x2)
    G---------------------------------|---------|
    D---------------------------------|---------|
    A-7-7-7-------0-------------------|7-7-7-7-7|
    E-------7-8-8---8-10-10-8-10-8-10-|---------|
    
    
    Toda mi vida es para EL...
    G------------------------------------
  • +
    ¡Colabora con nosotros!
    Envíanos tu versión de esta canción

Letra de Todo es para él
GUITAR:ESTE SE HACE TOCANDO LAS QUINTAS Y SE REPITE 4 VECES
PARTE I
Toda mi vida es para El
Toda mi alabanza es para El
Mi canción devoción y mis fuerzas
Y mi adoración es para El
EEE BCCC BDD BD
EEE BCCC BDD BD DsE EEE
PARTE I
Toda mi vida es para El
Toda mi alabanza es para El
Mi canción devoción y mis fuerzas
Y mi adoración es para El
PARTE II
Canto para El, Danzo para El
Grito que soy libre sólo en El
Vivo para El, la razón de ser
Grito que soy libre sólo en El
Todo es para El
LUEGO SE REPITE OTRA VEZ Y EN LA ULTIMA PARTE VA ASI
Todo es para El
EEE BCCC BDD BD
EEE BCCC BDD BD EEE EEE EEE BBB EEE
PARTE III
UOH OH OH OH Danzo para el //////
SE REPITE LA PARTE II
Canto para El, Danzo para El
Grito que soy libre sólo en El
Vivo para El, la razón de ser
Grito que soy libre sólo en El
Todo es para El
SE REPITE EL INTRO:
EEE BCCC BDD BD
EEE BCCC BDD BD
EEE BCCC BDD BD
EEE BCCC BDD BD
DsE EEE




[Todo es para él chords][Todo es para él cifra]
© LaCuerda.net · aviso legal · privacidad · es · en · pt · contacto