Acordes de Guitarra » M »Miel San Marcos » El Santo de Israel (Tab)

El Santo de Israel
Miel San Marcos

Letras, Acordes y Tabs para Guitarra, Bajo y Ukulele

  •       Am       F
    El Santo de Israel está aquí
    
         C                      G
    ha descendido con gloria y poder
    
          Am          F                 C
    su nombre es Jehová Dios fuerte y valiente
    
                E
    el león de Judá.
    
    CORO:
        Am        F            C          G
    Alabamos exaltamos hoy al santo de Israel
    
        Am         F            C         G
    Alabamos exaltamos hoy al santo de Israel
    
        Am          F           C         G
    
  • [G G# Am C G/B Am]
    [G G# Am C G/B AmAmAmAmAmAmAm]
    
    Acordes
    [Am F C E7] x3
    [Am F C E7 E7 E7 E7]
    [G G# Am]
    
    Estrofa:
    
                                  Am       F
                              [El Santo de Israel está aquí,
                                       C                  E
                          Ha descendido con gloria y poder,
                      Am          F                 C
                 Su nombre es Jehová Dios fuerte y valiente,
                                                         E
                                           El león de Judá.] x2
    
    Coro:
    
  •  G G# Am C B Am
     G G# Am C B Am Am Am Am G G# Am
    
           TROMPETAS
    //Am F C E7//
      Am F C E7 E7 E7 E7 G G# Am
    
    
    VERSO
          Am          F
    // EL Santo de lsrael está aquí,
                 C                   E7
       Ha descendido con gtoria y poder,
           Am            F                   C
       Su nombre es Jehová Dios fuerte y vatiente,
                    E7
       EL León de Judá //
    
    
    CORO
    
  • BENDICIONES! SALUDOS! BLESS! ATT: BTO
    
    G|- INTRO -------------------------------------------------|
    D|---------------------------------------------------------|
    A|-------------------------------3--2----------------------|
    E|--3--4--5--5--0--3--5--5--5----------5--5--0--3--5--5--5-|
    
    |-------------------------------------------------------------
    |-------------------------------------------------------------
    |-------------------------------3--2--------------------------
    |--3--4--5--5--0--3--5--5--5----------5--5--5--5--5--3--4--5--
    
    G|-------------------------------------------------------------------------
    D|--------3-----------------------------------7-----------3----------------
    A|-----3-----3--3-----3----7-----7---------7-----7-----3-----3--3-----3----
    E|--1--------------3----3-----7-----7---5-----------1--------------3-----3-
    
    |-----------------------------
    |-----------------------------
    |-7-----7--8--7---------------
    |----7-----------9--8--7--5---
    
    G|--- TROMPETAS -----------------
  • +
    ¡Colabora con nosotros!
    Envíanos tu versión de esta canción
  • Tutorial
    HD
    Miel San Marcos El Santo De Israel Bajo Tutorial With Tabs (HD)
    4:13

Letra de El Santo de Israel
El Santo de Israel está aquí
ha descendido con gloria y poder
su nombre es Jehová Dios fuerte y valiente
el león de Judá.
Alabamos exaltamos hoy al santo de Israel
Alabamos exaltamos hoy al santo de Israel
Alabamos exaltamos hoy al santo de Israel
su nombre es Jehová Dios Fuerte y valiente el León de Judá.
Aquí está este canto de mucha bendición
Dios les Bendiga.




[El Santo de Israel chords][El Santo de Israel cifra]
© LaCuerda.net · aviso legal · privacidad · es · en · pt · contacto