Acordes de Guitarra » M »Mercedes Sosa » Gracias a la vida (Tab)

Gracias a la vida
Mercedes Sosa

Letras, Acordes y Tabs para Guitarra, Bajo y Ukulele

  • Em            B7                   Em
    Gracias a la vida que me ha dado tanto
                  D                    G
    me dio dos luceros que cuando los abro
                  F                 Em
    perfecto distingo lo negro del blanco
                D7                G
    y en alto cielo su fondo estrellado
                B              B7      Em
    y en las multitudes al hombre que yo amo.
    
    Gracias a la vida que me ha dado tanto
    me ha dado el cielo que en todo su ancho
    graba noche y dia grillos y canarios
    martillos, turbinas, ladridos, chubascos
    y la voz tan tierna de mi bien amado.
    
    Gracias a la vida que me ha dado tanto
    me ha dado el sonido y el abecedario
    con el las palabras que pienso y declaro
    
  • Am           Dm    E                 Am
    Gracias A LA vida    que me ha dado tanto
                  Dm   G             C       C7
    me dio dos luceros   que cuando los abro
             A#                     F
    perfecto distingo lo negro del blanco
                E                   Am
    y en alto cielo su fondo estrellado
               Dm              E           Am
    y en las multitudes al hombre que yo amo.
    
    Am           Dm    E                 Am
    Gracias A LA vida    que me ha dado tanto
                  Dm    G             C       C7
    me ha dado el cielo  que en todo su ancho
              A#                     F
    graba noche y dia grillos y canarios
                E                    Am
    martillos, turbinas, ladridos, chubascos
               Dm              E     Am
    
  •  Am2     Dm2    Cmaj7   C7sus4    E4     Fmaj7   E7/G#    
    E - 0   E - 0   E - 0   E - 0    E - 0   E - 0   E - 0       
    B - 0   B - 3   B - 5   B - 3    B - 0   B - 1   B - 3     
    G - 5   G - 2   G - 4   G - 3    G - 2   G - 2   G - 4              
    D - 7   D - 3   D - 5   D - 2    D - 0   D - 3   D - X  
    A - 0   A - 2   A - 3   A - 3    A - 2   A - 3   A - X   
    E - 0   E - 0   E - 0   E - 0    E - 0   E - 0   E - $   
    
    
    
    INTRO           
         
    E --------------- 4--5--7--8--7--5--5-7-8--10-8--7--4--5--7-8--7--5-|
    B -5-5-5-5-6--5---3-----6-----6--5------7--------6--3-----6----6--5-|
    G ---------7--4-- 4-----7-----7--5------8--------7--4-----7----7--5-|
    D ---------6----- 3-----6-----6--7------7--------6--3-----6----6--7-|
    A ---------7---------------------7--------------------------------7-|
    E ----------- 4------------------5--------------------------------5-|
    
    
    
  •     Am                E7                      Am         
    e --0---0----0--0--1----------------------------0----------------
    B --1-----------------0---1--3---3---3----3--1-------------0--1--
    G --2-----------------1---2--4----------------------2---2--0--2--
    D --------------------------------------------------2---2--------
    A --0-----------------------------------------------0------------
    E --------------------0------------------------------------------
        Gra cias A  LA vi da         que meha da do tan to
     
    
                         G7                     C
    e -----------------------0---0----0------0-----
    B --1--1---1---1--1------------------3------1--
    G -------------------0---0-----------4------0--
    D --2----------------0-------------------------
    A ------------------------------------------3--
    E -------------------3-------------------------
        me dio dos lu ce ros que cuan do los a  bro
    
        C7                                        F
    
  • +
    ¡Colabora con nosotros!
    Envíanos tu versión de esta canción

Letra de Gracias a la vida
Gracias a la vida que me ha dado tanto
me dio dos luceros que cuando los abro
perfecto distingo lo negro del blanco
y en alto cielo su fondo estrellado
y en las multitudes al hombre que yo amo.
Gracias a la vida que me ha dado tanto
me ha dado el cielo que en todo su ancho
graba noche y dia grillos y canarios
martillos, turbinas, ladridos, chubascos
y la voz tan tierna de mi bien amado.
Gracias a la vida que me ha dado tanto
me ha dado el sonido y el abecedario
con el las palabras que pienso y declaro
madre, amigo, hermano y luz alumbrando
la ruta del alma del que estoy amando.
Gracias a la vida que me ha dado tanto
me ha dado la marcha de mis pies cansados
con ellos anduve ciudades y charcos,
playa y desertos, montanas y llanos
y la casa tuya, tu calle y tu patio.
Gracias a la vida que me ha dado tanto
me dio el corazon que agita su marco
cuando miro el fruto del cerebro humano,
cuando miro al bueno tan lejos del malo,
cuando miro el fondo de tus ojos claros.
Gracias a la vida que me ha dado tanto
me ha dado la risa y me ha dado el llanto
asi yo distingo dicha de quebranto,
los dos materiales que forman mi canto
y el canto de ustedes que es el mismo canto,
y el canto de todos que es mi propio canto.
¡Gracias a la vida!




[Gracias a la vida chords][Gracias a la vida cifra]
© LaCuerda.net · aviso legal · privacidad · es · en · pt · contacto