Acordes de Guitarra » M »Melissa Janet Romero » Quiero Volver (Tab)

Quiero Volver
Melissa Janet Romero

Letras, Acordes y Tabs para Guitarra, Bajo y Ukulele

  •     Am/B   Fmaj7
    1-----0------0----
    2-----1------1----
    3-----0------2----
    4-----0------3----
    5-----2------3----
    6-----x------x----
    
    Intro: C G F C x2
    
    
    --Versos--
              Am     Am/B      C           Fmaj7
    Quise buscar un mundo sin ti y me fui lejos
            Am     G             C        Fmaj7
    y recorrí las calles de un triste Universo...
                    Am    Am/B      C         Fmaj7
    Le abrí el corazón a cosas que no te agradaban
                Am    G                      Fmaj7
    y me consumió mi mente, mis fuerzas, mi alma...
    
  •    D   C#m7  Dsus4  D/G
    1--x----x------x-----2---
    2--x----x------x-----x---
    3--11---9------12----2---
    4--0----0------0-----0---
    5--x----x------x-----x---
    6--10---9------10----3---
    
    Intro:
    
       D                               C#m7         Dsus4
    1--------------------------------|-------------|-----------------|
    2----------------------------------------------------------------
    3--11-----11------11-----11---------9----9--------12-----12------
    4---------------0--------------0-------------0-----------------0-
    5----------------------------------------------------------------
    6--10--10----10---10--10----10---|--9--9---9---|--10--10----10---|
    
       D/G
    1---------2---------------2--------------2--------------2----
    
  • +
    ¡Colabora con nosotros!
    Envíanos tu versión de esta canción

Letra de Quiero Volver
--Versos--
Quise buscar un mundo sin ti y me fui lejos
y recorrí las calles de un triste Universo...
Le abrí el corazón a cosas que no te agradaban
y me consumió mi mente, mis fuerzas, mi alma...
--Precoro--
Y todo lo demás no me llenaba,
mi corazón te añoraba a ti...
Y puse mi atención en cosas vanas,
cada día me alejaba más de ti...
Quiero volver hacia ti mi mirada otra vez
llena todo mi ser, se mi fuerza, mi fe...
Vuelve a mi tu rostro otra vez hazme sentir tu amor, tu favor
ven toma lugar en mi corazón...
--Verso--
Fue tan sutil como te fui removiendo
del primer lugar del centro de mis pensamientos...
--Precoro--
Y todo lo demás no me llenaba,
mi corazón te añoraba a ti...
Y puse mi atención en cosas vanas,
cada día me alejaba más de ti...
Quiero volver hacia ti mi mirada otra vez
llena todo mi ser, se mi fuerza, mi fe...
Vuelve a mi tu rostro otra vez hazme sentir tu amor, tu favor
ven toma lugar en mi corazón...
Quiero volver hacia ti mi mirada otra vez
llena todo mi ser, se mi fuerza, mi fe...
Vuelve a mi tu rostro otra vez hazme sentir tu amor, tu favor
ven toma lugar en mi corazón...
¿Tienes dudas?
www.facebook.com/AlexFabianChords
www.twitter.com/FabianChords
Chiapas-México




[Quiero Volver chords][Quiero Volver cifra]
© LaCuerda.net · aviso legal · privacidad · es · en · pt · contacto
DINAMICO