Acordes de Guitarra » M »Melendi » Un tipo diferente (Tab)

Un tipo diferente
Melendi

Letras, Acordes y Tabs para Guitarra, Bajo y Ukulele

  • SOL
    He cosido mis talones a mi sombra,
    RE
    pa' que aguanten junto a mi todo el camino.
    MIm
    Pa' dejar atrás to' lo q me atolondra,
    DO
    voy cantando caminante no hay camino.
    SOL
    Si nunca he cogido el toro por los cuernos,
    RE
    es porque todavía no llego a los pedales.
    MIm
    Y la fama me ha cosido una careta,
    DO
    que solo puedo quitarme en carnavales.
    
    SOL                        RE
    Y queriendo ser un tipo diferente,
    LAm                            DO
    
  • E||-----------------------|-----------------------|-----------------------|
    B||--------12-----8v------|----10p8-7vv-----------|---7-8-10p8-8p7--------|
    G||--7/9---0--------------|-----------------------|--7-------------10-----|
    D||-----------------------|-----------------------|-----------------------|
    A||-----------------------|-----------------------|-----------------------|
    E||-----------------------|-----------------------|-----------------------|
    
    
    ------------------------|-------------------------|----------------------||
    ------------------------|-------------------------|----------------------||
    --9--7-7---6/7----------|----9/11--11-------------|----11h12--12v--------||
    ------------------------|-------------------------|----------------------||
    ------------------------|-------------------------|----------------------||
    ------------------------|-------------------------|----------------------||
    
    SOL
    He cosido mis talones a mi sombra,
    RE
    pa' que aguanten junto a mi todo el camino.
    MIm
    
  • INTRO.
    
    E||-----------------------|-----------------------|-----------------------|
    B||--------12-----8v------|----10p8-7vv-----------|---7-8-10p8-8p7--------|
    G||--7/9---0--------------|-----------------------|--7-------------10-----|
    D||-----------------------|-----------------------|-----------------------|
    A||-----------------------|-----------------------|-----------------------|
    E||-----------------------|-----------------------|-----------------------|
    
    
    ------------------------|-------------------------|----------------------||
    ------------------------|-------------------------|----------------------||
    --9--7-7---6/7----------|----9/11--11-------------|----11h12--12v--------||
    ------------------------|-------------------------|----------------------||
    ------------------------|-------------------------|----------------------||
    ------------------------|-------------------------|----------------------||
  • +
    ¡Colabora con nosotros!
    Envíanos tu versión de esta canción

Letra de Un tipo diferente
He cosido mis talones a mi sombra,
pa' que aguanten junto a mi todo el camino.
Pa' dejar atrás to' lo q me atolondra,
voy cantando caminante no hay camino.
Si nunca he cogido el toro por los cuernos,
es porque todavía no llego a los pedales.
Y la fama me ha cosido una careta,
que solo puedo quitarme en carnavales.
Y queriendo ser un tipo diferente,
huyo siempre de cualquier comparativo.
No me gusta hacer mucho caso a la gente,
yo siempre he aprendido mas de lo vivido.
Y la vida me ha enseñado en estos años,
a fuerza de tratar con tantas personas.
La nobleza y el cariño esta en los barrios,
y con plata hasta una mierda resultona.
Y aunque a mi no me haga gracia, mi disco no pasa frio,
acurrucao entre mantas, entre Paulina e I'll Divo.
Y si el pueblo se levanta, yo me acuesto contigo,
pero hoy nuestra esperanza no es mas que una puta, que esta en el
Retiro
Me he pasao a mis principios por la piedra,
he pintao en las tapas de los retretes.
Olvide poner mensaje en la botella,
soy un triste folio en blanco sin membrete.
Se me rompen las cuerdas de la guitarra,
cuando veo que el mundo esta patas arriba.
y si intentas meter la mano en su falda,
los que mandan te la devuelven mordida.
espero ke no hayan muchos errorees!
un saludo a todos los guerreros ke pasen por aqui ^^
arriba esos cuernos!!




[Un tipo diferente chords][Un tipo diferente cifra]
© LaCuerda.net · aviso legal · privacidad · es · en · pt · contacto