Acordes de Guitarra » M »Melendi » Marco es un canalla (Tab)

Marco es un canalla
Melendi

Letras, Acordes y Tabs para Guitarra, Bajo y Ukulele

  • LAm    DO    MIm             LAm   DO    MIm
    ---------------------------------------------------------------
    -x-----x-----x---------------x-----x-----x----10-9-10-0--------
    --x-x---x-x---x-x-------------x-x---x-x---x-x------------------
    ---x-----x-----x---------------x-----x-----x-------------------
    --------------------------x------------------------------------
    -------------------x-x-x-0-------------------------------------
    
    
    LAm    DO    DO3traste  DO                LAm    DO    MIm
    ---------------------------------------------------------------
    -x-----x-----x----------x------------------x-----x-----x---x/7-
    --x-x---x-x---x-x--------x-x----------------x-x---x-x---x-x----
    ---x-----x-----x----------x------------------x-----x-----x-----
    ---------------------------------------------------------------
    ---------------------------------------------------------------
    
    
    mim en el 7 traste        mim en el 3 traste        mim en el 2 traste
        ----7----                 ----3----                ----2----
    
  •    MIm   DOSI  SOL  SI    MIm   DO   SOL-si(slide)
    --------------3---------------------3----------------------------------
    --------------3---------------------3----------------------------------
    ----0-----0---4-----8------0-----0--4----------------------------------
    ---2-2---2----5----9-9----2-2---2---5----------------------------------
    --2-----3-----5---9------2-----3----5----------------------------------
    --------------3---------------------3--3----7----------------------------
    
    después de ésto tocar en la cuarta cuerda desde el tercer
    traste hasta el séptimo.
    
    tocar quintas en el séptimo traste así:
    
    
       (cejilla n1)              (cejilla n2)             (cejilla n3)
        ----7----                 ----3----                ----2----
        ----9----                 ----5----                ----4----
        ----9----                 ----5----                ----4----
        ---------                 ---------                ---------
        ---------                 ---------                ---------
    
  •  mitraste7          MI7traste
       ----7----          ---------
       ----7----          ---------
       ----9----          ----9----
       ----9----          ----9----
       ----7----          ----7----
       ----7----          ---------
    
    
       MI3traste                MI2traste
       ---------                ---------
       ---------                ---------
       ----5----                ----4----
       ----5----                ----4----
       ----3----                ----2----
       ---------                ---------
    
    
    
    INTRO: mitraste7*
    
  •        MI5                       DO5                      SI5
        ---------                 ---------                ---------
        ---------                 ---------                ---------
        ----9----                 ----5----                ----4----
        ----9----                 ----5----                ----4----
        ----7----                 ----3----                ----2----
        ---------                 ---------                ---------
    
    
    
    Intro
    
     LAm    DO    MIm              LAm    DO    MIm
    -------------------3-3--3-0------------------------------------
    ----------------------------3----------------------------------
    ---2-----0-----0------------------2-----0-----0----------------
    --2-2---2-2---2-2----------------2-2---2-2---2-2---------------
    -0-----3-----2------------------0-----3-----2------10-9-10-0---
    ---------------------------------------------------------------
    
    
  • +
    ¡Colabora con nosotros!
    Envíanos tu versión de esta canción

Letra de Marco es un canalla
mim en el 7 traste mim en el 3 traste mim en el 2 traste
mi7traste
Mucho cuidado que aunque parezca un mico
el se levanta haciendo el ataque del pico
mi7traste
pidiendo teta no hay quien se le resista
no cabe duda que este guaje va pa artista
nació con cresta escupiendo a la matrona
pidiendole a la anestesista una litrona
ponia los cuernos en las ecografias
este me va pedir la paga con diez dias
Marco es un canalla
que duerme de dia
y al caer la noche
empieza con su melodia
pasa de las nanas
y con disimulo
guiña una ojo
mirando al CD de extremoduro
y menudo cuadro
los tres en la cama
Marco y yo colgando de las tetas de la dama
karla te amo esta canción sera para nuestro futuro hijo.Te ama Sam
tu ocupas cada
parte de mi pensamiento,
llenas cada rincón de mi corazón,
y me callas con solo un beso
eres la culpable
de que mi aliento no exista
me lo quitaste con gesto,
una mirada,una risa..
y aunque en tus silencios
no digas nada,
tu corazón me gritara
enamorada...
02/04/2011
espero que les guste...




[Marco es un canalla chords][Marco es un canalla cifra]
© LaCuerda.net · aviso legal · privacidad · es · en · pt · contacto