Acordes de Guitarra » M »Matia Bazar » Tú o la sencillez (Tab)

Tú o la sencillez
Matia Bazar

Letras, Acordes y Tabs para Guitarra, Bajo y Ukulele

  • |--------0----------------1----------------1--------------------0-----
    |--------6----------------3----------------3--------------------2-----
    |--------7----------------1----------------2--------------------0-----
    |----12*-7---0-2-3-2-0----3---0-2-3-2-0----0---0-2-3-2-0--------2-----
    |-12*----5-------------1--1-------------0--------------------0--------
    |--------------------------------------------------------4------------
    
    (12* = armónico)
    
    
    REm                          DO
    Miro siempre al cielo y con ansia espero que
    LA7                         REm
    Que el rocio caiga gota a gota en mi piel
                              DO
    Luego espero al sol y le pido por favor
    LA7                                    REm
    Que me encienda el fuego inprescindible del amor
    
    FA    SOLm          LA7  REm
    
  •                     Dm              A7                Dm 
    e----------1------------------------------------------------------------------------1-
    b---------3-----------------------------------------------------------------------3---
    g--------2----------------------------------------------------------------------2-----
    d----0------------------0-2-3-0---------0-2-3-0---------0-2-3-0---------------0-------
    a--0-------------------------------1--------------0----------------1--------0---------
    e-------------------------------------------------------------------------------------
    
      Dm                      A7
    1)Miro siempre al cielo y con ansia espero que
                        Dm
      Qu’el rocio caiga gota a gota en mi piel
                        A7
      Luego espero al sol y le pido por favor (tching, popon)
                              Dm
      Que me encienda el fuego inprescindible del amor
    
                F       C                Dm
    Estribillo :      Tu o la sencillez es mi felicidad
                F       C                Dm
    
  • +
    ¡Colabora con nosotros!
    Envíanos tu versión de esta canción

Letra de Tú o la sencillez
1)Miro siempre al cielo y con ansia espero que
Qu’el rocio caiga gota a gota en mi piel
Luego espero al sol y le pido por favor (tching, popon)
Que me encienda el fuego inprescindible del amor
Estribillo : Tu o la sencillez es mi felicidad
Tu o la sencillez es mi felicidad
2)Corro corro corro corro por lados y me entretengo con las flores
El amor me hace mil paisajes interiores
Voy siguiendo rio hasta que cruza al fin su meta a a
Brilla entre sus alas el color de los planetas
Estribillo
3)Ia pateira ia pateira raraa ia pateira ia pateira ra ra
Ia pateira aa ia pateira uuuu a au a
1)Luego vuelvo a casa y me siento frente al fuego
Dibujando el aire dibujando el aire con el tinte de mis sueños
Luego tus caricias que no quiero que me falten
y acabar el dia y acabar el dia adormecido en cualquier parte eee
Estribillo
3)Ia tataira ia tataira raraa ia tataira ia tataira ra ra
uuuu a ai a ai

Video de Tú o la sencillez
[]




[Tú o la sencillez chords][Tú o la sencillez cifra]
© LaCuerda.net · aviso legal · privacidad · es · en · pt · contacto