Tablatura de Marea: La luna me sabe a poco
Kutxi Romero Lorente
Besos de perro. [2002]
INTRO

--------------------------------------------
--------------------------------------4/7-6-
----------6---6---6-8~------6---6---6-------
------6-8---8---8-------6-8---8---8---------
--------------------------------------------
--------------------------------------------

---------------------------------------------------
--------------------9------9br---------------------
-----6---6---6-8-8b---8b-------------6---6---6-8-----
-6-8---8---8---------------------6-8---8---8------
---------------------------------------------------
---------------------------------------------------

-------------------------------------------------------
--------------------4/7-6----------------4/7-6------8p6-
----------6---6---6------------6---6---6--------8~------
------6-8---8---8----------6-8---8---8------------------
--------------------------------------------------------
--------------------------------------------------------

SOLO


-------------------9----9----9----9----9-------------
----------7---7-9b---9b---9b---9b---9b---9b-9br-7----
------6-8---8-------------------------------------8--
-----------------------------------------------------
-----------------------------------------------------
-----------------------------------------------------

---------------------------------------------------------------
-11-11----11-11----11-11---11-11----11-11----------------------
-11-11----11-11----11-11---11-11----11-11----------------------
-------13-------13-------13------13-------13-11----11-13-11-13-
------------------------------------------------13-------------
---------------------------------------------------------------

---------------------------------------11-14-11-------------------------
---------------------------------11-14----------14-11-------------------
---------------------------11-13----------------------13-11----11-13-11-
---------11-13-11----11-13-----------------------------------13---------
--/11-13----------13----------------------------------------------------
------------------------------------------------------------------------

-------------------------------------------------------14----
--------------------------------------14br-11-13b~~~~~~~~----
---------------------------13br-11-13~-----------------------
--13-11----11-13--11-13-------------------------------------
--------13--------------------------------------------------
------------------------------------------------------------

Parte lenta

------------16b~---14-13-------------------------------------11--
--------14---------------14----------------------13-14-11--------
-----13---------------------15--15-13--------13b----------13-----
--------------------------------------15~------------------------
-----------------------------------------------------------------
-----------------------------------------------------------------

---------------------16b~----14-13------------------14-13----------
------14-13-11----14---------------14-14/16---16b---------14~~-----
--13b----------13--------------------------------------------------
-------------------------------------------------------------------
-------------------------------------------------------------------
-------------------------------------------------------------------


Bueno , pues aki esta la intro i el solo, yo kreo k esta bastante bien,
en la parte rapida del solo es posible k aya algun fallo pero bueno,
dudas korrecciones i lo k sea a slim_onirik@hotmail.com
Este fichero es trabajo propio de su transcriptor y representa su interpretación personal de la canción. El material contenido en esta página es
para exclusivo uso privado, por lo que se prohibe su reproducción o retransmisión, así como su uso para fines comerciales.
© LaCuerda.net · aviso legal · privacidad · contacto