Acordes de Guitarra » M »Marcos Witt » Somos el pueblo de Dios (Tab)

Somos el pueblo de Dios
Marcos Witt

Letras, Acordes y Tabs para Guitarra, Bajo y Ukulele

  • INTRO: C G C
                         C
    Somos el pueblo de Dios
                         Am
    Somos un pueblo especial
                      F
    llamados para anunciar
                      G     F G aquí hay un pare
    las virtudes de aquel
                        C
    que nos llamó a su luz
    
                        C
    Somos el pueblo de Dios
                      Am
    su sangre nos redimio
                  F
    y su espiritu dio
                   G     F G aquí hay otro pare
    para darnos poder
    
  • Intro: G C G
    
                        G
    Somos el pueblo de Dios
                       Em
    Somos un pueblo especial
                     C
    Llamados para anunciar
      Am               D
    Las virtudes de Aquel
                       G     C  G
    Que nos llamó a su luz
    
                       G
    Somos el pueblo de Dios
                     Em
    Su sangre nos redimió
                   C
    Y su espíritu dio
    Am            D
    
  • Afinación: G D A E B
    
      Intro
    G |-----------------------------------------------------------------
    D |-----------------------------------------------------------------
    A |--------3----------3-3-3-3---3-----------------------------------
    E |--3-----------3-----------------/\----3---3----3---3---3-3-------
    B |-----------------------------------------------------------------
    
    G |-------------------------------------------------|
    D |-------------------------------------------------|
    A |-----------------3-------------------------3-----|
    E |3---3----3---3-------3---3----3---3---3-3--------|
    B |-------------------------------------------------|
    
      Versos
    G |-----------------------------------------------------------------
    D |-----------------------------------------------------------------
    A |-----------------------------------------------------------------
    E |-3---3----3---3---3-3-----3---3----3---3---3-3-------------------
    B |--------------------------------------------------5---5----5---5
  • +
    ¡Colabora con nosotros!
    Envíanos tu versión de esta canción
  • Tutorial
    somos el pueblo de Dios tutorial con guitarra acustica
    6:02
  • Tutorial
    Somos el pueblo de Dios tutorial con guitarra
    7:13

Letra de Somos el pueblo de Dios
Somos el pueblo de Dios
Somos un pueblo especial
llamados para anunciar
las virtudes de aquel
que nos llamó a su luz
Somos el pueblo de Dios
su sangre nos redimio
y su espiritu dio
para darnos poder
y ser testigos de Él
Y llevaremos su gloria
a cada pueblo y Nación
trayendoles esperanza
y nuevas de salvación
y su amor nos impulsa
no nos podemos callar
anunciaremos al mundo
de su amor y verdad
que dios los bendiga




[Somos el pueblo de Dios chords][Somos el pueblo de Dios cifra]
© LaCuerda.net · aviso legal · privacidad · es · en · pt · contacto