Acordes de Guitarra » M »Marcos Witt » Sana nuestra tierra (Tab)

Sana nuestra tierra
Marcos Witt

Letras, Acordes y Tabs para Guitarra, Bajo y Ukulele

  • G | Em7 | C | Am7 - D - |
    
    
    VERSO
    G         Em7      C
      Vengo a ti, Guíame
          D         G
    Santificame en ti
                Em7           C
    Yo quiero andar en tu verdad
    G     Em7        C
      Tómame, abrázame
            D               Am7        D
    Mi corazón hoy vuelvo a ti, solo a ti.
    
    
    CORO
       G                 Em7
    Quiero a humillarme, buscar tu rostro
     C                   Am7      D
    
  • Intro:  // G - Em - C - Am - D //
    
    Riff (overdivre)
    e|--------------|---------------|------------|------------||
    B|--------------|---------------|------------|------------||
    G|--------------|---------------|--7--5-4----|--7--5-4----||
    D|--7s5-5--7/9--|---7s5-5--7/9--|----------5-|----------7-||
    A|--------------|---------------|------------|------------||
    E|--------------|---------------|------------|------------||
    
    
    Estrofa:
    G        Em       C
    Vengo a Ti, guíame
        D           G
    Santifícame en Ti
          Em                 C
    Yo quiero andar en Tu verdad
    G     Em       C
    Tómame, abrázame
    
  • 
    E-----------------------------------------------------------
    B-------12h15(15)bends full15--12-------------------------------
    G---------------------------------1412111211----------------
    D-12s14--------------------------------------12v------------
    A-----------------------------------------------------------
    E------------------------------------------------------------
    
    E------------------------------------------------------------
    B-----------------------------------------------------12-----
    G--------11h12h14v-14h16141212--11h1211------------12------
    D-12s14---------------------------------1412v--14------------
    A------------------------------------------------------------
    E------------------------------------------------------------
    
    E---------14h1514-------------15h17s19v19-17h15s17--------
    B--15117----------15s17-15h17-------------------------------
    G------------------------------------------------------------
    D-----------------------------------------------------
  • +
    ¡Colabora con nosotros!
    Envíanos tu versión de esta canción

Letra de Sana nuestra tierra
VERSO
Vengo a ti, Guíame
Santificame en ti
Yo quiero andar en tu verdad
Tómame, abrázame
Mi corazón hoy vuelvo a ti, solo a ti.
Quiero a humillarme, buscar tu rostro
Hoy me arrepiento delante de ti
Vengo a invocarte, inclina tu oído
Escucha y perdona mi rebelión.
TAG (2x)
Sana nuestra tierra. / /
Escucha hoy mi oración
A ti levanto mi clamor.
Quiero a humillarme, buscar tu rostro
Hoy me arrepiento delante de ti
Vengo a invocarte, inclina tu oído
Escucha y perdona mi rebelión.
SALIDA (7x)
Sana nuestra tierra.
FINAL
Con tu amor.
FIN




[Sana nuestra tierra chords][Sana nuestra tierra cifra]
© LaCuerda.net · aviso legal · privacidad · es · en · pt · contacto