Acordes de Guitarra » M »Marcos Witt » Poderoso Dios sobrenatural (Tab)

Poderoso Dios sobrenatural
Marcos Witt

  • Letra y Acordes
    Intro: C   G/B   Am   F   Dm    G
    
                    C   Em     Am
    Al que esta sentado en el trono
             F    Dm              G
    Y al cordero        sea el honor
    
             C      Em     Am
    Sea la gloria, sea la honra
              F      Dm                           G         F
    Sea el dominio,        por los siglos de los siglos
    
    ::CORO::
    
    G     G/B    C        G/B     Am
    Poderoso    Dios, poderoso    Dios
        Am/G       F    Dm                       G      G/A     G/B
    Poderoso     Dios,        mi alma clama por ti
    
    
    
  • Letra y Acordes
    Intro: G D G Em7 C Am D G
    
    Verso 1
                  G
    Al que esta sentado
            Em7
    en el trono
             C    Am
    y al cordero
              D
    sea el honor.
    
    
    Verso 2
    
    C   D    G
    Sea la gloria
           Em7
    sea la honra
             C
    
  • Tablatura
    Hay que escuchar primero como lo tocan en el CD para identificar
    los tiempos y silencios que van.
    
    
    Intro
    e||-----------------------12-12--------
    B||13-13-13-12-13---13-15------15-13-13
    G||---------------12-------------------
    
    e||------------15s17-15-15h17--
    B||13-13-13-12---------------17
    G||----------------------------
    
    e||----------------------------------------------------------||
    B||13-13-13-12-13v-13-12-----13-10-13-13-15-12---------------||
    G||---------------------12-10-----------------14-12-12h14v-12||
    
    Solo
    
    e||--------------------------------------15s17--15h17
    B||-----12-12-13------13-15-15b17v-15p13-------------
    G||12-12--------14--14-------------------------------
    
    e||----------------------12-13-12h13-15--15-15-----18
    B||13-13-12-12-----12-15---------------13-----18-17--
    G||-----------12-12----------------------------------
    
    e||--13--------13h15-15-15-----------------------------
    B||13--15-13h15-----------12h13-12h13-12h13-12h13-12h13
    G||------------------------------------
  • +
    ¡Colabora con nosotros!
    Envíanos tu versión de esta canción

Letra de Poderoso Dios sobrenatural
Al que esta sentado en el trono
Y al cordero sea el honor
Sea la gloria, sea la honra
Sea el dominio, por los siglos de los siglos
Poderoso Dios, poderoso Dios
Poderoso Dios, mi alma clama por ti
::Outro::
Mi alma clama por ti
Mi alma clama por ti
Mi alma clama por ti
Mi alma clama por ti
SUBE A TONO "D"
(X2)
Poderoso Dios, poderoso Dios
Poderoso Dios, mi alma clama por ti
Poderoso Dios



© LaCuerda.net · aviso legal · privacidad · contacto