Acordes de Guitarra » M »Marcos Witt » Poderoso (Tab)

Poderoso
Marcos Witt

Letras, Acordes y Tabs para Guitarra, Bajo y Ukulele

  • Am
    Poderoso, Poderoso
    
       Dm
    el Leon de Juda nunca perdsera, porque es el
    
    Am
    Poderoso, Poderoso
    
       C  Dm
    es el Santo de Israel nada temere porque es el
    
    Am
    Poderoso, Poderoso
    
    Am
    Cristo es el rey no hay nadie como él
    
            G   Am   G   Am   C
    es Podero - so
    
  • 6: ----------------------
    5: 7-5-3--5-3-5-3-5h3-5h3 (x1)
    4: ----------------------
    
    la segunda parte del intro es practicamente
    lo mismo pero en la guitarra varia asi:
    
    6: ------3----------------
    5: 7-5-3---5--------------
    4: -----------7---8------- (x1) de aqui empieza con la de arriba (x2)
    3: ---------7---5---------
    2: ------------------6----
    1: -----------------------
    
    
    D
    Cristo es el rey no hay nadie como él        * D --]  6: xxxxxxxxxxxxxxx
                                                          5: xxxxxxxxxxxxxxx
           G-A-G-A-C-D                                    4: 7--------------
    es Podero - so                                        3: 5--------------
    
  •  E-------------------------------
     B-------------------------------
     G-------------------------------
     D--------------------5-7-5-7v---
     A--5s7-5-3----------------------
     E----------3-5--3-5-------------
    
    
     E----------------------------------
     B----------------------------------
     G----------------7---5v-----8s10---
     D------------------7----7s9--------
     A--5s7-5-3-----5-------------------
     E----------3-----------------------
    
    
     E---------------------------
     B---------------------------
     G---------------------------
     D----------------5-7-5-7v---
    
  • E|-------|----------------|----------------------------------------------|
    B|-------|----------------|---------------------7-8----------------------|
    G|---5-7-|-9-9--9-----5-7-|--8-7-5-7---(7)(V)----------------------------|
    D|-7-----|--(T)-----------|----------------------------------------------|
    A|-------|----------------|----------------------------------------------|
    E|-------|----------------|----------------------------------------------|
    
    E|-----------------------|-------------|--5---7---8---/10---10(T)--------|
    B|-9-/10---8-5-----------|-----------5-|----5---5---5--------------------|
    G|---(T)-------8-7-5-----|-9-9--9------|---------------------------------|
    D|-------------------7-5-|----(T)------|---------------------------------|
    A|-----------------------|-------------|---------------------------------|
    E|-----------------------|-------------|---------------------------------|
    
    E|-10-8-6-4-5--6-8-------5-6-|--7--10-7-----------------|----------------|
    B|----------------\8-6-------|----------8---------------|----------------|
    G|-----------------(T)-------|------------7-5-4-----5-7-|-9-9-9----------|
    D|---------------------------|--------------(T)---7-----|--(T)-----------|
    A|---------------------------|--------------------------|--------2-3-4---|
    E|---------------------------|--------------------------|----------------|
    
  • Afinación: G D A E
    
      (0:58) Intro
    G |------------------------------------------------------------5-----|
    D |-----------------------------------------------------5--------7--5|
    A |-----------------3-----------------------3---------7---7--5-------|
    E |/\---3-5---0-3-5---5--3-5----3-5---0-3-5---5--3-5-----------------|
    
      Coro 1
    G |-------------------------------------------------------------------
    D |---------5-7-5-7-----------------------------------5-7-5-7---------
    A |----------------------------5s7-7--3--5----------------------------
    E |--5-3-5-------------5-3-5-------------------5-3-5------------5-3-5-
    
    G |--------------------------5h7--------------------5h7---------------
    D |----------------------5-7--------------------5-7------------5-7-5-7
    A |-----3---5-3-5—-5-5s8----------5-3-5---5-5s8-----------------------
    E |-3-5-------------------------------------------------5-3-5---------
    
    G |-------------------------------------------------------------------
    D |-------------------------
  • Poderoso-25 años Conmemorativo-Marcos Witt
    
    Introducción:
    
    B ||--------------------------------------||
    E ||---------------3-5-3-5----------------||
    A ||---7--5--3----------------------------||
    D ||--------------------------5-7--5-7----||
    G ||--------------------------------------||
    
    
    B ||--------------------------------||
    E ||-------------3--------5---6-----||
    A ||---7--5--3-------5-5----3-------||
    D ||-----------------------------3--||
    G ||--------------------------------||
    
    
    B ||-----------------------------------------------------------------||
    E ||------------3-5-3-5------------------------3-5-3-5-5-5-5-5-5-----||
    A ||-----5--3------------------------7--5--3-------------------------||
    D ||--2------------------5-7-5-7-------------------------------------||
    G ||-----------------------------------------------------------------||
    
    
    Verso:
    
    B ||---------------------------------------------------||
    E ||-----------------3h5------------------3-5-3-5------||
    A ||---3h5---3x-3h5------- 3h
  • +
    ¡Colabora con nosotros!
    Envíanos tu versión de esta canción
  • Tutorial
    HD
    Poderoso y Aleluya 25 conmemorativo Tutorial de Bajo
    9:15

Letra de Poderoso
Poderoso, Poderoso
el Leon de Juda nunca perdsera, porque es el
Poderoso, Poderoso
es el Santo de Israel nada temere porque es el
Poderoso, Poderoso
Cristo es el rey no hay nadie como él
es Podero - so
sobre satanas él tomo la autoridad
es Podero - so
ante su póder, las tinieblas han de caer
es Podero - so
sobre el trono está, coronado en majestad
él nos prometio que pronto regresara




[Poderoso chords][Poderoso cifra]
© LaCuerda.net · aviso legal · privacidad · es · en · pt · contacto