Acordes de Guitarra » M »Marcos Witt » No podria vivir (Tab)

No podria vivir
Marcos Witt

Letras, Acordes y Tabs para Guitarra, Bajo y Ukulele

  • G                 C            F
    Yo no podria vivir si Tú no estas conmigo
    
    G                  C            F
    yo no podria vivir, si Tú no estas aqui
    
    G                 C            F
    yo no podria vivir si Tú no estas conmigo
    
    Bm                     C    F     G
    Eres la razón que me impulsa a seguir
    
    
    Cm                    Dm              Eb
    Eres como el sol en la mañana, fiel siempre estaras
    
    Cm                       Dm        Eb             F
    Eres como el aire que respiro, sin Tí, vivo no estoy
    
    
    
  • SDFA(Omit3)    Do(add9)       Fa(add9)
       YO NO PODRIA VIVR SI TU NO ESTAS CONMIGO
    
    SDFA(Omit3)     Do(add9)        Fa(add9)
       YO NO PODRIA SEGUIR SI TU NO ESTAS AQUI
    
    SDO(Omit3)     Do(add9)      FA(add9
       YO NO PODRIA VIVR SI TU NO ESTAS CONMIGO
    
    SDFSOL                 Do(add9)  Fa(add9)  Sol(Omit3)
    ERES LA RAZON QUE ME IMPULSA             A SEGUIR
    
    DOm7                    REm7
    ERES COMO EL SOL EN LA MAÑANA
    
         MIbmaj7             REm7
    FIEL SIEMPRE ESTARAS
    
    DOm7                  REm7
    ERES COMO EL AIRE QUE RESPIRO 
    
  • Afinación: G D A E
    
      Intro
    G |-------------------------------------------------------------------
    D |-------------------------------------------------------------------
    A |--------------------------------1--1-3-1---3—-3--3-----------------
    E |-3-3-3-3-3-3-3----/\---3--3-1h3---------------------1---1-1--------
    
    G |-------------------------------------------------------------------
    D |-------------------------------------------------------------------
    A |----------1--1-3-1---3--3--3----------------------1--1-3-1---3—-3--
    E |-3--3-1h3---------------------1---1-1----3--3-1h3------------------
    
    G |------------------------------------------------|
    D |------------------------------------------------|
    A |-3----------------------1--1-3-1---3--3--3------|
    E |----1---1-1----3--3-1h3---------------------1\--|
    
      Coros
    G |-------------------------------------------------------------------
    D |-------------------------------------------------------------------
    A |----------1--1-3-1---3--3--3-----
  • +
    ¡Colabora con nosotros!
    Envíanos tu versión de esta canción

Letra de No podria vivir
Yo no podria vivir si Tú no estas conmigo
yo no podria vivir, si Tú no estas aqui
yo no podria vivir si Tú no estas conmigo
Eres la razón que me impulsa a seguir
Eres como el sol en la mañana, fiel siempre estaras
Eres como el aire que respiro, sin Tí, vivo no estoy
Eres mi escudo y mi castillo, siempre me guardas
Eres Tú Jesús mi fiel amigo, nunca me dejaras
No, no puedo vivir sin Tú amor
Eres el consuelo en mi dolor
hoy te necesito mas que ayer




[No podria vivir chords][No podria vivir cifra]
© LaCuerda.net · aviso legal · privacidad · es · en · pt · contacto