Acordes de Guitarra » M »Marcos Witt » Mi Primer Amor (Tab)

Mi Primer Amor
Marcos Witt

Letras, Acordes y Tabs para Guitarra, Bajo y Ukulele

  •   E/G#    F#m7   Dmaj7    A/C#  Bm7(add4) A(add2)/C#
     EADGBe  EADGBe  EADGBe  EADGBe  EADGBe     EADGBe
     4X245X  242222  X54222  X4X255  X22232     X42200
    
      Amaj7
     EADGBe
     X02120
    
    A         E/G#     F#m7 
     Oh Jesús,     mis pasos me han llevado
         E  D      A
     tan le-jos de Ti.
             E/G#      F#m7
     Mi alma      se secado en el desierto 
        E      D
     dentro de mi.
       Dmaj7   A/C#         Dmaj7
     Escuchame mi Jesús, el amor de mi vida,
        A/C#                 Bm7(add4)  A(add2)/C#  E 
     LA luz de MI existir no puedo -  vivir   -     sin
    
  • Intro: A9 - A9/G# - F#m* - E - D(add9)
    
    
    A9    A9/G#
     Oh Jesus,
        F#m*                                        E7     D(add9)     A9
    Mis pasos me han llevado tan    le    jos        de Ti
         A9/G#
    Mi alma,
            F#m*                                  E7        D(add9)
    Se ha secado en el desierto dentro de mi
    
     Dmaj7           C#m*
     Escuchame, mi Jesus
        Dmaj7
    El amor de mi vida
       C#m*
    La luz de mi existir
     Bm*         C#m*  E   A(add9)
    No puedo vivir   sin Ti
    
  • Intro: Dmaj7 - A/C#(x2) Bm7 - D/E - E - 
    
    ESTROFA:
      A              E/G#  
               OH Jesús,       
    E----------------4---------
    A-0------------------------
    D---2--------------2-------
    G--------------------------
    B-----0-0_2----------0-0_2-
    e--------------------------
    
         F#m7                      E   D
     mis pasos me han llevado  tan le--jos de Ti.
    E----2-------------------------0------------/
    A------------------------------|------------/
    D-------2----------------------|----0-------/
    G------------4--------2----2---|--1-|-------/
    B------------------------------|-0--|-------/
    e-----------------------0------0----2-------/
    
  • Intro: Dmaj7 - A/C#(x2) Bm7 - D/E - E - 
    
    ESTROFA:
       A               E/Ab    
                OH Jesús,     
    e|-------------------------|
    B|---------------------0-2-|
    G|-----4-4s6---------------|
    D|---2---------------2-----|
    A|-0-----------------------|
    E|-----------------4-------|
         1 3 3         3 1   1 
    
        F#m                      E   D        -
    mis pasos me han llevado tan le--jos de ti.
    e|--------------------0-------0--2-|
    B|---------------------------0-0-3-|
    G|----------3s4-----2----2---1---2-|
    D|----2----------------------2---0-|
    A|---------------------------------|
    
  • +
    ¡Colabora con nosotros!
    Envíanos tu versión de esta canción

Letra de Mi Primer Amor
EADGBe EADGBe EADGBe EADGBe EADGBe EADGBe
4X245X 242222 X54222 X4X255 X22232 X42200
EADGBe
X02120
Oh Jesús, mis pasos me han llevado
tan le-jos de Ti.
Mi alma se secado en el desierto
dentro de mi.
Escuchame mi Jesús, el amor de mi vida,
Ti.
Primer Amor, te adorare por siempre
yo quiero estar pegado a Ti.
Llevame hoy al Santo lugar Jesús,
donde te conocí.
Espero les guste. See Yaa!!!




[Mi Primer Amor chords][Mi Primer Amor cifra]
© LaCuerda.net · aviso legal · privacidad · es · en · pt · contacto