Tablatura para Bajo de Marcos Witt: Alabemos
Conexión · Inscripción
Letras y Acordes
Pantalla Completa
Imprimir
Versión Texto
Añadir Favorito
Otras Versiones

Mostrar Diagramas
Desfile Automático
Formato del Texto


Alabemos(BAJ)

Marcos Witt

calidad:
mwit3403
AUTOR: Marcos Witt
ALBUM: Sigues Siendo Dios (2014)
Enviado por Jose
Bueno esta tablatura para bajo es sacado a oido ya que asi la
toque con el grupo de la iglesia y suena mejor
(nota: lo que esta dentro del parentesis son los trastes a tocar)
se toca a la misma velocidad del sintetizador en toda la cancion
a excepcion del puente.

Intro y coro
G |------------------------------------------------------|
D |------------------------------------------------------|
A |00-0-0—33-3-3-----------------------------------------|
E |---------------33-3-3--33-3-3/(10)--(10)(10)-(10)-(10)|

G |----------------------------------------------------|
D |----------------------------------------------------|
A |----------------------------------------------------|
E |(13)(13)-(13)-(13)--55-5-5/(13)--(13)(13)(13)/3--333| x2

Estrofa

G |----------------------------------------------------------------|
D |----------------------------------------------------------------|
A |00-0-0--00-0-0--33-3-3--33-3-3------------------55-5-5----------|
E |--------------------------------33-3-3--33-3-3----------111--333| x2

despues pasa al coro que es el mismo intro y despues pasa al puente.

Puente

G |------------------------------------------|
D |------------------------------------------|
A |00000000--------------------------55555555|
E |----------11111111--330330353033----------|

G |------------------------------------------------------------------|
D |------------------------------------------------------------------|
A |(12)(12)(12)(12)(12)(12)(12)(12)----------------------------------|
E |----------------------------------(13)(13)(13)(13)(13)(13)(13)(13)|

G |----------------------------------|
D |----------------------------------|
A |----------------------------------|
E |(15)(15)(15)(15)(15)(15)(15)(15)/3| x2

de aqui pasa a la estrofa, despues coro,
vuelve al puente y al fin pasa al puente rap.

Puente Rap

G |-------------------------------------------------------|
D |-------------------------------------------------------|
A |00-0-0-------------------------------------------------|
E |--------33-3-3--(10)(10)-(10)-(10)--(13)(13)(13)/3--333| x4

despues pasa al coro y por ultimo puente.
Este fichero es trabajo propio de su transcriptor y representa su interpretación personal de la canción. El material contenido en esta página es
para exclusivo uso privado, por lo que se prohibe su reproducción o retransmisión, así como su uso para fines comerciales.

© LaCuerda.net · Aviso Legal · Privacidad