Acordes de Guitarra » M »Marcos Witt » Al Rey (Tab)

Al Rey
Marcos Witt

Letras, Acordes y Tabs para Guitarra, Bajo y Ukulele

  • Intro. SOLm, FA, RE#, RE  
    
          SOLm   FA        RE#    RE
    ////Al Rey Hossana, al Rey aleluya////
    
                          SOLm    FA
    Me ha enseñado su grandeza
                         LA#     RE
    Me ha mostrado su belleza
                       SOLm
    Me vistió de su realeza 
       FA       LA# RE#     RE
    De su salvación yo cantaré
    
                      SOLm    FA
    Ha cambiado mi tristeza
                   LA#     RE
    Ha ungido mi cabeza
                      SOLm
    Me cubrió de su belleza
    
  • Intro: SOLm-FA -RE# -RE   
    
       SOLm   FA       RE#    REsus4 RE 
    Al Rey Hossana, al Rey alelu.....ya  
    
    Aqui el bajo y la guitarra hacen esto:
    e/--------------------
    B/--------------------
    G/---------5----------
    D/----4-7-----8-7--5--
    A/--5-----------------
    E/--------------------
    
    La estrofa tiene estos acordes
    
                              SOLm    
        Me ha enseñado su grandeza   (Aqui biene el Riff 1)
    FA                      SIb      
        Me ha mostrado su belleza    (Aqui el Riff 2)
    RE                     SOLm
    
  •   3:50
    
    e|---------------------------------------------------------------|
    B|---------------------------------------------------------------|
    G|-7--5--7—7/87--5--7--5—7~---7--5--7—7/87--5------------------|
    D|------------------------------------------------5—-3--5~-------|
    A|---------------------------------------------------------------|
    E|---------------------------------------------------------------|
    
    
    e|---------------------------------------------------------------|
    B|---------------------------------------------------------------|
    G|-7--5--7—7/87--5--7--5—7~-7+trem--7--5--7—7/87--5------------|
    D|-------------------------------------------------------5—-3--5~|
    A|---------------------------------------------------------------|
    E|---------------------------------------------------------------|
    
    e|---------------------------------------------------------------|
    B|-15~-----------------------------------------------------------|
    G|--------17-17~---15-17-15-14-15-14-12-14~--12
  • Intro: (Gm  F  Eb  D) X2
    
    Este es el punteo del intro de la guitarra acústica,
     no se bien si suena igual pero es parecido escuchen
    es solo una idea…
    
    E|--------------8-10--11-10-8----------8-----------------------------|
    B|------8-10-11---------------11-10-11---11-10-8-10-11-10-8----8-----|
    G|-8-10-----------------------------------------------------10-------|
    D|-------------------------------------------------------------------|
    A|-------------------------------------------------------------------|
    E|-------------------------------------------------------------------|
    
    
    E|------------------10-10-10-10-11-13-15-15-15-----15-15-15--13-13-13|
    B|-8-11-10--8-11-10--------------------------------------------------|
    G|-------------------------------------------------------------------|
    D|-------------------------------------------------------------------|
    A|-------------------------------------------------------------------|
    E|-------------------------------------------------------------------|
    
  • :Intro:(Bateria)
    :Intro:(Bateria e Instrumentos)
    :Intro:(Golpes antes de entrar a la cancion)
    
    G]:------------:
    D]:------------:
    A]:------------:
    E]:3-3---3--3-3:
    
    :Intro:
    
    G]:-------------:------------:-----------:-------5-3--:
    D]:--5--------5-:----3-3----3:1---1-1---1:---4-7-----7:
    A]:---------5---:--3------3--:--1-----1--:5-----------:
    E]:3---3-3------:1-----------:-----------:------------:
    
    G]:-------------:------------:------------:------5-3--:
    D]:5-----------5:3----------3:1---1-1----1:--4-7-----7:
    A]:--5-------5--:--3------3--:--1------1--:5----------:
    E]:----3-3------:----1-1-----:------------:-----------:
    
    :Coro:
    
    Al Rey, Hossana!...
    
    G]:-------------:------------:------------:-----------:
    D]:5-----------5:3----------3:1---1-1----1:-----------:
    A]:--5-------5--:--3------3--:--1------1--:5-----3-1--:
    E]:----3-3------:----1-1-----:------------:--2-5-----5:
    
    Al Rey, Hossana!...
    
    G]:------------:------------:------------:------------:
    D]:----5-5---
  • +
    ¡Colabora con nosotros!
    Envíanos tu versión de esta canción
  • Tutorial
    Marcos Witt - You Reign - Bass
    4:30

Letra de Al Rey
////Al Rey Hossana, al Rey aleluya////
Me ha enseñado su grandeza
Me ha mostrado su belleza
Me vistió de su realeza
De su salvación yo cantaré
Ha cambiado mi tristeza
Ha ungido mi cabeza
Me cubrió de su belleza
De su redención yo cantaré
Yo me asombro me maravillo
Y derramo mi canto en honor a Él
No hay nadie mas glorioso
Tan hermoso como mi Rey
Es mi primera colaboración, la canción es muy
buena, en cuanto pueda envío los acordes para bajo
Les agradecería si me envían un e-mail a la
dirección je_duque@cantv.net con sus
comentarios.
Saludos,
José Duque




[Al Rey chords][Al Rey cifra]
© LaCuerda.net · aviso legal · privacidad · es · en · pt · contacto