Acordes de Guitarra » M »Marcos Brunet » Toma tu lugar (Tab)

Toma tu lugar
Marcos Brunet

  • Letra y Acordes
    D                    A
    Te preparamos un lugar
    Em                    Bm - A
    Para que vengas a reinar
    D/F#                A
    Te preparamos un lugar
    Em                    Bm - A
    Para que puedas disfrutar
    
    
            G                             D/F#
    Se apagan las luces que están sobre el hombre
    Em                 A
    Solo Tú mereces brillar
    G            Em          A         D
    No hay nadie más importante que Jesús
    
    
                     A
    / Ven y toma tu lugar
    
  • Tablatura
    Intro: /////D - G/////
    
    
    E|---------------------------6-----------------------6----------
    B|-------^6--^6--6-------^6----^5v3-3ñ---------^6-^6---^6v-3-6--
    G|-2-4-2-----------2-4-2----------------2-4-2------------------2
    D|--------------------------------------------------------------
    A|--------------------------------------------------------------
    E|--------------------------------------------------------------
    
    
    E|--------------------------------------------------------------
    B|-3/8-7ñ-8/10-7ñ--/7--7-------14--------15-------15/17---------
    G|------------------------------------------------------14------
    D|------------------------12-14----12-14----12-14---------------
    A|--------------------------------------------------------------
    E|--------------------------------------------------------------
    
    
    E|-----------------17----------------------------17-------------
    
  • Piano (Teclados)
    --Jair--
    
    
    Intro:
    Mano derecha(Tonos)
    Mano Izquierda (Acordes)
    
    Mano derecha:   D E F# A G F# E E A G F# D E   D  C#
    Mano Izquierda:     D           A          Em  Bm-A
    
    Mano derecha:   C# D E F# A G F# E E A G F# D E   D  C#
    Mano Izquierda:        D           A          Em  Bm-A
    
    
    Nota:Hagan arpegio a los acordes.
    
    
    
    Verso:
    D                     A
    //Te preparamos un lugar
    Em                    Bm - A
    Para que vengas a reinar
    D/F#                A
    Te preparamos un lugar
    Em                    Bm - A
    Para que puedas disfrutar//
    
    
    Pre-coro:
            G                             D/F#
    Se apagan las luces que están sobre el hombre
    Em                 A
    Solo Tú mereces brillar
    G            Em          A         D
    No hay nadie más importante que Jesús
    
    
    Coro:
                     A
    // Ven y toma tu lugar
    Em               G
    Ven y toma tu lugar
              D
    Señor Jesús //
    
    
    Puente:
         Bm          A         G
    // Porque Tú eres bueno Señor
         Bm   A               Em
    Y tu misericordia es sin 
  • +
    ¡Colabora con nosotros!
    Envíanos tu versión de esta canción

Letra de Toma tu lugar
Te preparamos un lugar
Para que vengas a reinar
Te preparamos un lugar
Para que puedas disfrutar
Se apagan las luces que están sobre el hombre
No hay nadie más importante que Jesús
/ Ven y toma tu lugar
Ven y toma tu lugar
Señor Jesús /
/ Porque Tú eres bueno Señor
Y tu misericordia es sin fin /
Porque Tú eres el rey por siempre



© LaCuerda.net · aviso legal · privacidad · contacto