Acordes de Guitarra » M »Marcos Brunet » Llévame a tu casa (Tab)

Llévame a tu casa
Marcos Brunet

Letras, Acordes y Tabs para Guitarra, Bajo y Ukulele

  • G     Gsus4 D/F#
    Am           Em
    
    C               G/B
    Una cosa yo te pido
          Am         G      D/F#
    Y es todo lo que yo persigo
         Am        Em
    Que Pueda habitar
              C       G         D
    En tu presencia todos los días
    
    
                 Am       Em
    Llevame a tu casa
             C              G/B
    Quiero estar donde tu estas
    
    Puente:
    G     Gsus4 D/F#
    
  • G     Gsus4  D/F#  F  C/E
    
    C                 G/B
    Una cosa yo te pido
            Am       Am/G    D/F#
    Y es todo lo que yo persigo
             C     G/E
    Que Pueda habitar
             Am     Am/G       D/F#
    En tu presencia todos los días
    
    CORO:
                  Am  Em
    Llévame a tu casa
               Cmaj7         D/B (G, para ir A estrofa o puente)
    Quiero estar donde tu estas
    
    PUENTE:
    G     Gsus4  D/F#  F  C/E
    
    
  •     G x2      G            D       F           C
    e/------------------------------------------------------------/
    B/--12-12x3---12-12-12-13--10-10x4-10-10-10-12--8-8-8-10------/
    G/------------------------------------------------------------/
    D/------------------------------------------------------------/
    A/--10--------10-------------------8--------------------------/
    E/-------------------------10-------------------8-------------/
    
        G             D         F
    e/-----------12-------------------------8-8-10----------------/
    B/--12-12-12------1O-10x4---10-10-12-12-----------------------/
    G/------------------------------------------------------------/
    D/------------------------------------------------------------/
    A/--10----------------------8------8----8---------------------/
    E/----------------10------------------------------------------/
    
     Estrofa
          C          G/B         Am         G       D
    Una  cosa yo te pido y esto todo lo que yo percibo
          C          G/B         Am         G       D
    
  • +
    ¡Colabora con nosotros!
    Envíanos tu versión de esta canción

Letra de Llévame a tu casa
Una cosa yo te pido
Y es todo lo que yo persigo
Que Pueda habitar
En tu presencia todos los días
Llevame a tu casa
Quiero estar donde tu estas
Quiero contemplar tu hermosura
Quiero adorar tu persona
Y disfrutarte en tus lugares
Celestiales




[Llévame a tu casa chords][Llévame a tu casa cifra]
© LaCuerda.net · aviso legal · privacidad · es · en · pt · contacto