Acordes de Guitarra » M »Marcela Gandara » Es una aventura (Tab)

Es una aventura
Marcela Gandara

Letras, Acordes y Tabs para Guitarra, Bajo y Ukulele

  • G                 D
    Es una aventura conocerte
                    Am
    Caminar y obedecerte
                Em
    Y vivir por ti
    G                       D
    Es una aventura estar contigo
                       Am
    Caminar y ser tu amigo
               D
    Y vivir por ti
    B7                  C
    Es una aventura cada día
                   D
    Si te tengo a ti
                   C
    Si te tengo a ti
    
    
    
  • Eb9 F#m7add4 Cm Abadd2
    
    
    Eb9                  Bbadd2
    Es una aventura conocerte
                    Abadd2
    Caminar y obedecerte
                Eb9 Ebsus4
    Y vivir por ti
    Eb9                       Bbadd2
    Es una aventura estar contigo
                       Abadd2
    Caminar y ser tu amigo
                Bbadd2
    Y vivir por ti
    Gm/D                  Cm
    Es una aventura cada día
                   Bbadd2
    Si te tengo a ti
                   Abadd2
    
  • Esta es el intro para la cancion
    
    (teclado va primero y luego entra la guitarra en 0:15)
    
    e------------------------------------
    B-6--4----6--4-----6-4--6-4--8--6s4~~
    G------3--------3--------------------
    D------------------------------------
    A------------------------------------
    E------------------------------------
    
    
    e------------------------------------
    B-6--4-----6--4------6--4--8--6------
    G------3---------3--------------3--5~
    D------------------------------------
    A------------------------------------
    E------------------------------------
    
    
    Alguna duda favor de enviarme un mensaje a: ericnikc@yahoo.com
  • Hola amigos, este es mi primer aporte es el solo de esta hermosa canción
    Espero que les sea de bendición a todos, ya que no la habían subido.
    
    Solo:
    
    e--------------------------------------------------------------------
    B--------------------------------------------------------------------
    G---------------8--10s12--10--8----------10s12--10--10--8--8--8--10--
    D--------8--10-------------------10--10------------------------------
    A-8--10--------------------------------------------------------------
    E--------------------------------------------------------------------
    
    e--------------------------------------------------------------------
    B-----------------------------------------------------11-------------
    G---------------------8--10s12--10--8----------10s12------10--8--8--8
    D-8s10---------8--10-------------------10--10------------------------
    A-------8--10--------------------------------------------------------
    E--------------------------------------------------------------------
    
    e----
  • hola aqui les dejo la tabs para el bajo de esta buenisima cancion
    espero les guste.
    
    
    
     inicia teclado.
    
     el bajo entra con la intro de la guitarra
    
    e-4----------1-------4---
    a-----6--6-------3-------
    d------------------------
    g------------------------
    
    estrofa
    1
    es una aventura conocerte caminar y obedecerte  y vivir por ti
    2
    
    e------3--3--1---
    a-6--6---------1-
    d----------------
    g----------------
    
    pre coro
    
    e-3-------6--4--
    a----3--3-------
    d---------------
    g---------------
    
    coro
    
    e-----------3--3-3--3-4--4-4--4--4-4-
    a-6--6-6--6--------------------------
    d------------------------------------
    g------------------------------------
    
    e-----------3--3-3-3---6-6--4--4-4--1-
    a-6--6-6--6----------3----------------
    d-------------------------------------
    g-------------------------------------
    
    intermedio
    
    e-4-------------
    a--------6------
    d---------------
    g---------------
    
    verso
    
    1
    
    e------3----1------
    a-6--6-------------
    d--------------1--1
    g------------------
    
    2
    
    e------3--3--1---
    a-6--6---
  • +
    ¡Colabora con nosotros!
    Envíanos tu versión de esta canción

Letra de Es una aventura
Es una aventura conocerte
Caminar y obedecerte
Y vivir por ti
Es una aventura estar contigo
Caminar y ser tu amigo
Y vivir por ti
Es una aventura cada día
Si te tengo a ti
Si te tengo a ti
Es una aventura el mar puedo cruzar
Camino sobre el agua si tú conmigo vas
Es una aventura cruzar por el umbral
Que lleva a lo imposible, si tú conmigo vas
Si tú conmigo vas
VERSO II (MISMA SECUENCIA)
Es una aventura que no acaba
Al confiar en tu palabra
Y seguirte a ti
Es una aventura cuando creo
Sin importar lo que yo veo
Porque estas ahí
Es una aventura cada día
Si te tengo a ti
Si te tengo a ti
y repite coro...




[Es una aventura chords][Es una aventura cifra]
© LaCuerda.net · aviso legal · privacidad · es · en · pt · contacto