Acordes de Guitarra » M »La Mancha de Rolando » La planta (Tab)

La planta
La Mancha de Rolando

Letras, Acordes y Tabs para Guitarra, Bajo y Ukulele

  • Intro: Am-Dm-E-Am-x2
    
         Am       Dm     E           Am                       Dm
    Verde hierba creció a la sombra de un árbol regada  en el dolor
             E        Am                     Dm       E
    de una lágrima de Dios, hija de aquellos vientos que soplaban
     Am              Dm             E          Am
    antaño vino para curar tristeza y resignación.
    INTRO X2
       Am            Dm      E           Am                  Dm
    Hombres de piel oscura conocieron su tallo, descubrieron aliados
            E        Am                    Dm       E
    que la tierra les dio, hija de aquellos vientos que soplaban
     Am                    Dm              E        Am
    antaño ya no fueron lo mismo cuando el humo llego.
     G           C        E               Am
    Se curan las heridas que atormentan mis años,
     G           C             E          Am
    crecen mis energías cuando busco el poder.
     G                C     E             Am
    
  • ------8-7-----------8-7------------------------------------------------------
    ------------6-------------5------------5--------------------------------------
    -----------------------------------5h7-----------------7(9)-7(9) -7-5------ BIS
    ---------------------------------------------7-5-7-----------------------7----
    --------------------------------------------------------------------------------
    --------------------------------------------------------------------------------
    
    Am                         Dm         E                  Am 
    Verde hierba creció a la sombra de un árbol
    regada en el dolor de una lágrima de dios
    hija de aquellos vientos que soplaban antaño
    vino para curar tristeza y resignación
    
    
    Riff
    
    Am                     Dm                     E             Am 
    Hombres de piel oscura conocieron su tallo
    descubrieron aliados que la tierra les dio
    hijos de aquellos vientos que soplaban antaño
    
  • Este es el primer riff (se repite varias veces en la canción)
    -------------------------------------------------------
    -13-12------13-12--------------------------------------
    -------10~--------9~----------7-9------------7b-7p5----
    -----------------------7-9-10-----7-5-7~-5p7--------7--
    -------------------------------------------------------
    -------------------------------------------------------
    
    El solo...
    ----------------------------------------------------------------------------------------------------------------------------------------
    ---------------------------------------------------------------------------------------------13---13---13-15b-13p13p15-12p13p12-10p12p10
    ------------------9-7--------------------------------9-9p10p9---------/12-10-9~-9p10p9~---/14---14---14---------------------------------
    -7-9-10--------5------9-9p10p9-5-5/7~-------9-10-12-----------12-10-9-------------------------------------------------------------------
    --------7-8~----------------
  • +
    ¡Colabora con nosotros!
    Envíanos tu versión de esta canción

Letra de La planta
Verde hierba creció a la sombra de un árbol
regada en el dolor de una lágrima de dios
hija de aquellos vientos que soplaban antaño
vino para curar tristeza y resignación
Riff
Hombres de piel oscura conocieron su tallo
descubrieron aliados que la tierra les dio
hijos de aquellos vientos que soplaban antaño
ya no fueron los mismos cuando el humo llego
Se curan las heridas que atormentan mis años
Crecen mis energías cuando busco el poder
no existe la tristeza en la vida del sabio
El temor siempre llega pero le queda el saber..
Desaparecerá la raza de los hombres
si luchar entre ellos o sino escuchan la voz
la voz de aquellos vientos que soplaban entonces
siempre la hierba crece cerca del árbol de dios




[La planta chords][La planta cifra]
© LaCuerda.net · aviso legal · privacidad · es · en · pt · contacto
DINAMICO