Acordes de Guitarra » M »Manal » Jugo de tomate frio (Tab)

Jugo de tomate frio
Manal

Letras, Acordes y Tabs para Guitarra, Bajo y Ukulele

  • e|-------------------------|-------------------------|
    B|-------------------------|-------------------------|
    G|--7s9-12-9-7-5-----------|--7s9-12-9-7-5-----------|x2
    D|---------------7--5------|---------------7-5-5h7v--|
    A|--------------------7-7b-|-------------------------|
    E|-------------------------|-------------------------|
    
    e|-----------------|
    B|-----------------|
    G|--------5---5----|
    D|------5---7---7--|x2
    A|--5-7------------|
    E|-----------------|
    
    LA7
    La tierra que te da la vida
    da un tiempo para decidir
    eligiendo inteligentemente
    todo el mundo podra ser feliz
    
    
  • e|-------------------------|---------------------------|
    B|-------------------------|---------------------------|
    G|-7s9-12-9/7-7/5----------|--7s9-12-9/7-7/5-----------|x2
    D|----------------7-5------|-----------------7-5--5h7v-|
    A|--------------------7-7b-|---------------------7-----|
    E|-------------------------|---------------------------|
    
    e|----------------------|
    B|----------------------|
    G|--------------5--5----|
    D|--------5-5^7---7--7--|x2
    A|--5-5^7---------------|
    E|----------------------|
    
    LA7
    La tierra que te da la vida
    da un tiempo para decidir
    eligiendo inteligentemente
    todo el mundo podra ser feliz
    
    
  • +
    ¡Colabora con nosotros!
    Envíanos tu versión de esta canción

Letra de Jugo de tomate frio
La tierra que te da la vida
da un tiempo para decidir
eligiendo inteligentemente
todo el mundo podra ser feliz
Estribillo
Jugo de tomate frio
jugo de tomate frio
en las venas
en las venas deberas tener
Si queres ser un terrible vago
todo el dia panza arriba y a dormir
o elegiste ser un tipo capo
siempre serio y que da temor deberas tener
Estribillo
Si queres triunfar con las mujeres
tener muchas que lloren por vos
tendras que ser muy poco inteligente
tener dinero, y una buena voz
Estribillo
Si queres ser un hombre importante
que se hable todo el dia de vos
como heroe, asesino o semidios
Estribillo
OUTRO
Un saludo a los muchachos de "Mamá esta presa" y
a los de "Caida libre", que tocaron en "Akaya Rock"
el 24/11 el sábado, que son amigos y unos kapos...
Éxitos gente!!




[Jugo de tomate frio chords][Jugo de tomate frio cifra]
© LaCuerda.net · aviso legal · privacidad · es · en · pt · contacto