Acordes de Guitarra » M »Maldita Vecindad » Kumbala (Tab)

Kumbala
Maldita Vecindad

Letras, Acordes y Tabs para Guitarra, Bajo y Ukulele

  •  Em
    Luz,
     B-7
    roja es la luz,
           Am    
    luz de neon
                Em
    que anuncia el lugar: 
    
    'Baile Kumbala Bar'
                   B-7
    y adentro la noche es
           Em
    musica y pasion.
    
    
     Em
    SOL,
                 B-7
    no entiendes lo que pasa aqui.
    
  •  Dm
    Luz,
     A7
    roja es la luz,
            Gm
    luz de neon
                F
    que anuncia el lugar: 
    
    "Baile Kumbala Bar"
        A7
    y adentro la noche es
           Dm
    musica y pasion.
    
    
     Dm
    SOL,
                  A7
    no entiendes lo que pasa aqui.
    
  •       Em      B7      Am
    e||---0---|---2---|---0---|
    B||---0---|---0---|---1---|
    G||---0---|---2---|---2---|
    D||---2---|---1---|---2---|
    A||---2---|---2---|---0---|
    E||---0---|---0---|---0---|
    <------------------------------------------------------------------>
    <------------------------------------------------------------------>
    Intro
    
         Em              B7               Am          B7
    e||-----------|    |-----------|    |-----------|-----------|
    B||-----------|    |-----------|    |-----------|-----------|
    G||-----------|    |-----------|    |-----------|-----------|
    D||-----------|    |-----1--4--|    |--------2--|-----1--4--|
    A||-----3--2--|    |--2--------|    |--0--3-----|--2--------|
    E||--0--------|x8  |-----------|x2  |-----------|-----------|x2
    
         Em
    
  • LA Maldita Vecindad.
    Ahora a volar con esta rolona que esta super chida.
    
              Bajo                              Intro 
    1-------------------------------------|--------------------------------------------------------------
    2-------------------------------------|--8--10--12--8--10--12--10--8--7--7--8--10--7--8--10--8--7--5-
    3-------------------------------------|--------------------------------------------------------------
    4-------------------------------------|--------------------------------------------------------------
    5----3--2-----3--2------3--2----2--3--|--------------------------------------------------------------
    6--0-------0----------0-------0-------|--------------------------------------------------------------
    
    
    1--12--14--15--12----------------12--|
    2--12-------------15--12---------12--|
    3--12--------------------14--12--12--|
    4------------------------------------|
    5------------------------------------|
    6------------------------------------|
    
    
    
  • E|---0-0-0---0--
    B|---0-0-0------
    G|---0-0-0------
    D|---2-X-X------
    A|---2-X-X-3----
    E|-0-X-X-X-----0
    
    
    E|-12-14-15-14-12-----------12
    B|-12------------15-12------12
    G|-12-----------------14-12-12
    D|----------------------------
    A|----------------------------
    E|----------------------------
    
     Em
    Luz,
     B7
    roja es la luz
             Am
    
  • observe las otras tabs y estan mal, por su puesto que no digo
    que mi tab este al 100%, alomejor a de tener unos 2 que 3 errores
    pero no creo, si la analizan con muy buen oido y escuchan el
    bajo de la cancion veran que esta correcta.
    
               X8        X2<---------X2---------->
    G]-----------|---------|----------|----------]
    D]-----------|----1--4-|--------2-|---1--4---]
    A]-------2---|-2-------|--0--3----|-2--------]
    E]-0--3------|---------|----------|----------]
    
             X2
    G]---------]---]
    D]---------]---]
    A]-------2-]---]
    E]-0--3----]-0-]
    
               X2         X2         X2          X2
    G]------------]---------]----------]----------]
    D]------------]----1--4-]-------2--]----------]
    A]-----------2]-2-------]-0--3-----]----2--5--]
    E]-----0--3---]---------]----------]-3--------]
    
               X2        X4         X2
    G]-----------]---------]----------]----------]---------]---------]
    D]----1--4---]---------]----1---4-]--------2-]----1--4-]---------]
    A]-2---------]-------2-]-2-------
  • Aqui les mando el bajo para kumbala
    es muy facil y con escuchar la cancion se agarra el ritmo
    
         mim
    ------------
    ------------
    ------2-3---
    -----0------
     
          si7
    ------------
    -------1-4--
    -----2------
    ------------
    
           lam
    ------------
    -------2-3--
    -----0------
    ------------
    
    
    1              2
    Luz roja es la luz
              3
    luz de neon
           1        
    que anuncia el lugar 
           2
    baila kumbla bar
       3
    y adentro la noche es
               1
    musica y pasion
    
    1               
    Sol no entiendes
                   2
    lo que pasa aqui
                  3
    esto es la noche
    1
    y de la noche son
                2  
    las cosas del amor
                   3
    el corazon a m dia luz
                       1
    siempre se entregara
    1                                   
    mar todo el ambiente huela a mar  
            2
    mucho calor
                     3       
    sudores en la piel
                   1
    sudor sabor a sal
            2          
    y en la pista una pateja
                    
  • HOLA QUE TAL AMIGOS DE LACUERDA.NET AQUÍ LES ENVIO MI VERSIÓN EN
    TECLADO DE ESTA CANCION ESPERANDO SEA DE SU AGRADO Y QUE LA
    PUEDAN TOCAR. ESPERO DUDAS, SUGERENCIAS, RECLAMACIONES,
    FELICITACIONES, ETC. ETC. A MI CORREO: djesfinge@hotmail.com
    ATTE: CESAR PINEDA SANTOYO
    
    INTRO
    
           Em
    Sol La Si
    
    Sol La Si
       B7
    La Sol Fa#
            Am B7
    Fa# Sol La
            Am B7
    Fa# Sol La
        Em
    Sol Fa# Mi
    
    CANTADO
    
    Em   B7
    Luz, roja es la luz,
           Am                Em
    luz de neon, que anuncia el lugar:
                             B7
    'Baile Kumbala Bar', y adentro la noche es
           Em
    musica y pasion.
    
    MUSICA
    
    Fa# Sol Fa# Mi Si
            B7
    Fa# Sol Fa# Mi Si
       Am    B7
    Si Do Do Mib
            Em            B7
    Fa# Sol Fa# Sol La Si Sol Fa#
    
    CANTADO
    
    Em                B7
    Sol, no entiendes lo que pasa aqui
                Am            Em
    esto es la noche, y de la noche son las cosas del amor
       B7
    el corazon a media luz,
                  Em
    siempre se entregara.
    
                    B7
    Mar, todo el ambiente huele a 
  • +
    ¡Colabora con nosotros!
    Envíanos tu versión de esta canción
  • Tutorial
    HD
    Como Tocar Kumbala - Maldita Vecindad [Tutorial Guitarra]
    7:12

Letra de Kumbala
Luz,
roja es la luz,
luz de neon
que anuncia el lugar:
"Baile Kumbala Bar"
y adentro la noche es
musica y pasion.
no entiendes lo que pasa aqui.
Esto es la noche,
y de la noche son las cosas del amor.
El corazon a media luz
siempre se entregara.
Mar,
todo el ambiente huele a mar,
Mucho calor,
sudores en la piel, sudor sabor a sal.
Y en la pista una pareja
se vuelve a enamorar.
Sol, no entiendes lo que pasa aqui:
esto es la noche, y de la noche son
las cosas del amor.
Una risa, una caricia,
y en la pista una pareja
se vuelve a enamorar.
Un sabroso y buen danzon,
a media luz el corazon
y en el Kumbala todo es
musica y pasion.




[Kumbala chords][Kumbala cifra]
© LaCuerda.net · aviso legal · privacidad · es · en · pt · contacto