Acordes de Guitarra » M »Madre Matilda » Sin Llorar (Tab)

Sin Llorar
Madre Matilda

Letras, Acordes y Tabs para Guitarra, Bajo y Ukulele

  • e |--------------------------------------|
    B |-----5--5--5--------------------------|
    G |-----4--4--4--4--4--4----4--4---3--3--|
    D |-----4--4--4--4--4--4----5--5---4--4--|
    A |-------~------------------------------|
    E |--------------------------------------|
    
    
    x2
    
            B5                  G5     F#5
    e |--------------------------------------|
    B |--------------------------------------|
    G |-----4--4--4--4--4--4-----------------|
    D |-----4--4--4--4--4--4----5--5---4--4--|
    A |-----2--2--2--2--2--2----5--5---4--4--|
    E |-------------------------3--3---2--2--|
    
    
    
    
  • +
    ¡Colabora con nosotros!
    Envíanos tu versión de esta canción

Letra de Sin Llorar
x2
Aire....... sudor...
sobre mi cabeza...
Late...... sola....
mi alma en tu piel.
Las penas vienen y se van,
y veo un gesto apasionado, en su rostro eterno,
puedo enrojecer puedo matar.
Me siento bien me siento mal
y nuestros cuerpos separados, van tomando fuerzas
no dejaste un beso al despertar.
Arde..... sin voz..
su cuerpo... no espera.
Su amor....... no tiene lugar
Las penas vienen y se van,
y veo un gesto apasionado, en su rostro eterno,
puedo enrojecer puedo matar.
Me siento bien me siento mal
y nuestros cuerpos separados, van tomando fuerzas
no dejaste un beso al despertar.
No puedo verte sin soñar,
no puedo amarte sin dejarme heridas...
Sin llorar sin llorar
sin llorar... aahh..
Las penas vienen y se van,
y veo un gesto apasionado, en su rostro eterno,
puedo enrojecer puedo matar.
Me siento bien me siento mal
y nuestros cuerpos separados, van tomando fuerzas
no dejaste un beso al despertar.
No puedo verte sin soñar,
no puedo amarte sin dejarme heridas...
Sin llorar sin llorar
sin llorar... aahh..
Puedes besarme sin hablar,
puedes tocarme sin dejar la vida,
Sin llorar sin llorar
sin llorar... sin llorar... aahh..

Video de Sin Llorar
[]




[Sin Llorar chords][Sin Llorar cifra]
© LaCuerda.net · aviso legal · privacidad · es · en · pt · contacto