Acordes de Guitarra » L »los Lunes » Dime que me quieres (Tab)

Dime que me quieres
los Lunes

Letras, Acordes y Tabs para Guitarra, Bajo y Ukulele

  • Em                   D       G
    Hay una cosa que te quiero decir,
    Em                          D   G
    que es importante al menos para mí,
    Em                    D      G
    toda la noche estuve sin dormir
    Em                           D
    porque una frase de tu boca quiero escuchar...
    
    Estribillo:
    G         Em        C
    Ah, ah ah ah, ah ah ah,
    D
    dime que me quieres,
    G         Em        C
    ah, ah ah ah, ah ah ah,
    D
    dime que me quieres.
    
    
    
  • Asus4/Db: |x00220|
    
    ===================Intro===============================
    
    Asus4/Db E   F#m  Asus4/Db E   F#m  Asus4/Db E    
     ----0-----0-----2-----0-----0-----2-----0-----0------
     ---2-----1-----2-----2-----1-----2-----2-----1-------
     --2-----1-----2-----2-----1-----2-----2-----1--------
     -0-----------------0-----------------0---------------
     -------2-----------------2-----------------2---------
     -------------2-----------------2---------------------
    
    
      F#m   D        E
     ----2-----2--------0---------------------------------
     ---2-----3-3------1----------------------------------
     --2-----2---2----1-----------------------------------
     -------0-----0---------------------------------------
     ----------------2------------------------------------
     -2---------------------------------------------------
    
  • Asus4/Db            E          F#m
    
    ------------------------------------------------------e
    -2---------2--------0-------0--2------2---------------B
    ---2---------2--------1-------------2---2-------------G
    --------0---------------------------------------------D
    -0----0--------0----2-------0--4----------------------A
    ------------------------------------------------------E
    
    hay una cosa q t   quiero  de-cir
    que es importante al menos para-mi
    toda la noche estube sin   dor-mir  porq
      D                    E                          Asus4/Db
    ----------------------------------------------0---------0---e
    --3------------3-------0----------0----------0--------2-----B
    ----2-----------2----------1--------1-------1-------2-------G
    ----------0---------------------2-----------------0---------D
    --0----0----------0--0-2-----2--------2---2-----------------A
    ------------------------------------------------------------E
      una frase de tu boca qiero escuchaaaar
    
  • +
    ¡Colabora con nosotros!
    Envíanos tu versión de esta canción

Letra de Dime que me quieres
Hay una cosa que te quiero decir,
que es importante al menos para mí,
toda la noche estuve sin dormir
porque una frase de tu boca quiero escuchar...
Estribillo:
Ah, ah ah ah, ah ah ah,
dime que me quieres,
ah, ah ah ah, ah ah ah,
dime que me quieres.
Ahora estoy triste y necesito saber,
si tú me quieres de verdad como ayer,
aunque parezca tanto quiero pedirte
que me lo repitas una vez y otra vez...
Estribillo
Me costó mucho y al final decidí
ir a tu casa y ahora estoy frente a ti,
quiero escucharlo y no me importa rogarte,
por favor, no juegues con mi corazón.
Hay una cosa que te quiero decir,
que es importante al menos para mí,
son dos palabras para hacerme feliz,
dímelo al oído una vez y otra vez...
Estribillo

Video de Dime que me quieres
[]




[Dime que me quieres chords][Dime que me quieres cifra]
© LaCuerda.net · aviso legal · privacidad · es · en · pt · contacto