Acordes de Guitarra » L »Logos » La última batalla (Tab)

La última batalla
Logos

Letras, Acordes y Tabs para Guitarra, Bajo y Ukulele

  • e|--------------------------------------------------------
    B|--------------------------------------------------------
    G|--------------------------------------------------------
    D|-------2-------------------------2----------------1-----
    A|-------2-2--------2-3-5-3-2------2-2--------2-3-5---2~--
    E|--10/--0-0--2-3-5-----------3-5--0-0--2-3-5-------------
    
    e|----------------------------------------------------|
    B|----------------------------------------------------|  3
    G|----------------------------------------------------|VECES
    D|--2-------------------------2----------------1~~----|
    A|--2-2--------2-3-5-3-2------2-2--------2-3-5--------|
    E|--0-0--2-3-5-----------3-5--0-0--2-3-5--------------|
    
    e|---------------------------------------------
    B|---------------------------------------------
    G|------------------------------------------5--
    D|--4-4--2-4-5-4-2-4------7--4-4--2-4-5-4-2-3--
    A|--2-2--0-2-3-2-0-2--3-2-5--2-2--0-2-3-2-0----
    E|--------------------1-0----------------------
    
  • e|------+-------------------------------------------------|
    B|------+-------------------------------------------------|(Repite 6 veces desde Em)
    G|------+-------------------------------------------------|
    D|------+--2--------------0--------------------------8\4--|
    A|------+--2-2--------0-2---3-2-----2-2--------0-2-3-6\2--|
    E|--10\-+--0-0--0-2-3-----------3~--0-0--0-2-3------------|
    
    Intro (2)
    e|-----------------------------+--------------------------------------|
    B|-----------------------------+--------------------------------------|
    G|--------------------------2--+------------------5-------------------|
    D|--4-4-------5-4---4-------0--+--4-4-------5-4---3--3-3-3--3-3-3--5--|
    A|--2-2--0--2-3-2-0-2--3-2-----+--2-2--0--2-3-2-0------------------3--|
    E|---------------------1-0-----+--------------------------------------|
    
    e|-----------------------------+----------------------------->
    B|-----------------------------+----------------------------->(Engancha con
    G|--------------------------2--+----------------------------->lo que sigue)
    D|--4-4-------5-4---4-------0--+--4-4-------5-4-------------->
    A|--2-2--0--2-3-2-0-2--3-2-----+--2-2--0--2-3-2-0--3-5--5-4-->
    
  • Entra junto con la bata
    
    Intro
    |-------------------------------------------------------------------
    |-------------------------------------------------------------------X4
    |-8-8-8-8-/2-------------0-2-3-5-3------------------0-2-3-6/2-------
    |-------------0-0--0-2-3-----------3-5---0-0--0-2-3-----------------
    
    |--------------------------------------------------------------
    |--------------------------------------------------------------
    |-2-2--0--2-3-2-0-2------5--2-2--0--2-3-2-0-2--8-8-8-8-8-8-8-2-
    |-------------------1-0----------------------------------------
    
    |--------------------------------------------------------------
    |--------------------------------------------------------------
    |-2-2--0--2-3-2-0-2------5--2-2--0--2-3-2-0--------------------
    |-------------------1-0----------------------1-3-3-2-----------
    
    |-----------------------------------------------------------------
    |-----------------------------------------------------------------
    |-------------0-2-3-5-3-----------------0-
  • +
    ¡Colabora con nosotros!
    Envíanos tu versión de esta canción

Letra de La última batalla
(Con base como intro 1, pero en C#)
NO DEJES QUE EL ODIO
ENCADENE A SUS PIES
TU SED DE JUSTICIA
Y LIBERTAD,
NI PIERDAS EL TIEMPO
CREYENDO QUE EN EL
SE ENCUENTRAN
LAS RESPUESTAS QUE BUSCAS,
G5# / A5 / F5#
PORQUE LA VERDAD
VA JUNTO AL AMOR
Y ELLOS TE ABRIRAN CAMINO.
Como Intro (2) (en G#)
EL ODIO EN LA GENTE
CAUSA DIVISION
PORQUE SOLO PIENSA
EN LA MALDAD
Y NUESTRO ENEMIGO
SE OCULTA EN EL
BUSCANDO A QUIEN DEVORAR,
PERO LA VERDAD
VA JUNTO AL AMOR
Y ELLOS TE ABRIRAN CAMINO
Como intro (1)
Como intro (3)
NO DEJES QUE EL ODIO
ENCADENE A SUS PIES
TU SED DE JUSTICIA
Y LIBERTAD,
NI PIERDAS EL TIEMPO
CREYENDO QUE EN EL
SE ENCUENTRAN
LAS RESPUESTAS QUE BUSCAS,
PORQUE LA VERDAD
VA JUNTO AL AMOR
Y ELLOS TE ABRIRAN CAMINO.
Como intro (1)
EN LA ULTIMA BATALLA.




[La última batalla chords][La última batalla cifra]
© LaCuerda.net · aviso legal · privacidad · es · en · pt · contacto
DINAMICO