Acordes de Guitarra » L »Lila Downs » La Martiniana (Tab)

La Martiniana
Lila Downs

Letras, Acordes y Tabs para Guitarra, Bajo y Ukulele

  •      Am  Am/G F  Dm   D# Bb   G   E  Am/F# Bbm Am/B Am/C
          |   |   |   |   |   |   |   |   |    |    |    |
    1e |--0---0---1---1---6---1---3---0---0----1----0----0----
    2B |--1---1---1---3---8---3---3---0---1----2----1----1----
    3G |--2---2---2---2---8---3---4---1---2----3----2----2----
    4D |--2---2---3---0---8---3---5---2---2----3----2----2----
    5A |--0-------3-------6---1---5---2--------1----2----3----
    6E |------3---1---------------0---2---2---------0----0----
    
    transcribi la intro del piano y termina con un apergio del arpa
    solo chequen bien los tiempos
    
    Introducción:
    
          Am Am/GAm/F# F   Dm     D# Dm   Bb  Am    F  Dm    G
           |   |   |   |   |      |  |     |   |    |   |    |
    
    1e |-------------------1--------------------------------------
    2B |---1---1---1---1---3------8--6-----3---1----1--10-10-8----
    3G |---2---2---2---2---2------8--7-----3---2----2--9--9--7-9--
    
  • +
    ¡Colabora con nosotros!
    Envíanos tu versión de esta canción

Letra de La Martiniana
| | | | | | | | | | | |
transcribi la intro del piano y termina con un apergio del arpa
Introducción:
| | | | | | | | | | | |
|
Niña, cuando yo muera no llores sobre mi tumba;
cántame un lindo son hay mama cántame La Sandunga.
(se repite)
Niña.......
No me llores, no, no me llores no;
porque si lloras yo peno,
en cambio si tú me cantas,
yo siempre vivo, yo nunca muero.
en cambio.......
(se repite y termina en "Am")
repite introducción
Lucero de la mañana
el rey de todos los sones
canta la Martiniana hay mama que rompe los corazones
Lucero de la mañana
el rey de todos los sones
canta la Martiniana hay mama que rompe los corazones
(se repite)
no me llores no......
Si quieres que te recuerde,
si quieres que no te olvide,
canta sones del alma hay mama,
música que no muere.
No me llores........




[La Martiniana chords][La Martiniana cifra]
© LaCuerda.net · aviso legal · privacidad · es · en · pt · contacto
DINAMICO