Acordes de Guitarra » L »Lidia Avila » Si tu eres el amor (Tab)

Si tu eres el amor
Lidia Avila

Letras, Acordes y Tabs para Guitarra, Bajo y Ukulele

  • Intro E,A,B7,A,E
    
    E                                  A                     B7      A             E
    Apenas te conozco y cargo con tu imagen, te juro que mis ojos te ven en todas partes
    E                                     A                      B7        A        E
    Lo que me esta pasando jamás lo había sentido, de mi te has adueñado y siento rebonito
    
    
                  B7                      E                 B7                           E
    Si tu eres el amor, no dejare que te vayas, abriré mi corazón para que llegues a mi alma
    A                    E                        B7                                E
    Si tu eres el amor, contigo quiero compartir, todo lo que tengo yo y a tu lado vivir
    A                   E                         B7                                   A, A7,E
    Si tu eres el amor, quiero que vivas en mi, abrígame con tu calor y hazme parte de ti
    
    
    Puente musical E,A,B7,A,E
    
    E                                  A                     B7      A             E
    Apenas te conozco y cargo con tu imagen, te juro que mis ojos te ven en todas partes
    
  • Este es el requinto de la cancion va para mi hermana
    que es fan de lidia, ojala y les guste
    
    |----------------------------------------------------------------
    |----------------------------------------------------------------
    |------10--10-----------10-10-----12p10-9---brbr-7---5h7p5-------
    |-7/10---10--------10/12-----------------------------8-----8-7---
    |----------------------------------------------------------------
    |----------------------------------------------------------------
    
    |---------------------13--13-------------13-13-------17br-15-----------
    |-------------------13--13----------13-15-------------------18--17-15--
    |----------10-12/14---------------14-----------------------------------
    |----10-12-------------------------------------------------------------
    |-12-------------------------------------------------------------------
    |----------------------------------------------------------------------
    
    |----------------------------13-------
    |-13---13/11---11/10----10/8----------
  • +
    ¡Colabora con nosotros!
    Envíanos tu versión de esta canción

Letra de Si tu eres el amor
Apenas te conozco y cargo con tu imagen, te juro que mis ojos te ven en todas partes
Lo que me esta pasando jamás lo había sentido, de mi te has adueñado y siento rebonito
Si tu eres el amor, no dejare que te vayas, abriré mi corazón para que llegues a mi alma
Si tu eres el amor, contigo quiero compartir, todo lo que tengo yo y a tu lado vivir
Si tu eres el amor, quiero que vivas en mi, abrígame con tu calor y hazme parte de ti
Apenas te conozco y cargo con tu imagen, te juro que mis ojos te ven en todas partes
Lo que me esta pasando jamás lo había sentido, de mi te has adueñado y siento rebonito
Si tu eres el amor, no dejare que te vayas, abriré mi corazón para que llegues a mi alma
Si tu eres el amor, contigo quiero compartir, todo lo que tengo yo y a tu lado vivir
Si tu eres el amor, quiero que vivas en mi, abrígame con tu calor y hazme parte de ti

Video de Si tu eres el amor
[]




[Si tu eres el amor chords][Si tu eres el amor cifra]
© LaCuerda.net · aviso legal · privacidad · es · en · pt · contacto