Acordes de Guitarra » L »Leyenda Urbana » Que nos pasó (Tab)

Que nos pasó
Leyenda Urbana

Letras, Acordes y Tabs para Guitarra, Bajo y Ukulele

  • C G Am F G C X 2
    
    
    C
    Llevo dentro aquel dolor
    G
    Cuando tuvimos que partir
    Am
    Cada quien por su camino
    F                        G
    Vagando sin encontrar el fin
    
    C
    Con un beso me dijiste adiós
    G
    Mi corazón por dentro lloro
    Am
    Y también me sentía morir
    F                       G
    Al saber que era lo mejor
    
  •    C               G             A            F       G
    1---------------------------------------------------------------
    2---------------------------------------------------------------
    3--9--9-11-13-11-9-8--8-9-11-9-8-6--6-8-9-8-6---9-8-6---11-9-8-9
    4---------------------------------------------7-------9---------
    5---------------------------------------------------------------
    6---------------------------------------------------------------
    
          C            G             A            F       G
    1---------------------------------------------------------------
    2---------------------------------------------------------------
    3-----9-11-13-11-9-8--8-9-11-9-8-6--6-8-9-8-6---9-8-6---11-9-8-9
    4---------------------------------------------7-------9---------
    5---------------------------------------------------------------
    6---------------------------------------------------------------
    
    
    C
    Llevo dentro aquel dolor
    G
    
  • +
    ¡Colabora con nosotros!
    Envíanos tu versión de esta canción

Letra de Que nos pasó
Llevo dentro aquel dolor
Cuando tuvimos que partir
Cada quien por su camino
Vagando sin encontrar el fin
Con un beso me dijiste adiós
Mi corazón por dentro lloro
Y también me sentía morir
Al saber que era lo mejor
Tu llorabas bastante mi amor
Me mirabas con grande dolor
En la radio una triste canción
La cual nos llenaba de pasión
Te abrase nada mas un instante
Doloroso trate de aguantarme
Y con llanto alcance a decirte
Palabras que por siempre recordare
Choro:
Recuerdas cuando tú y yo nos conocimos
Éramos felices pero que ha pasado
Ya nuestro amor por su lado ha volado
Ya no tenemos nada que ofrecer
En ciertos momentos te veo llorando
Desvías tus besos al sentir mis labios
Cuando te quiero abrasar ya no me contestas
Que nos ha pasado mi amor
Al llegar la noche ya no me recuerdas
Y cuando te duermes tampoco me sueñas
Que está sucediendo yo me he preguntaba
Ha donde se ha ido todo aquel amor
Despierto llorando solito en mi cama
Hay voces te piden a cada mañana
Es muy difícil pensar que ya no habrá nada
Es muy triste saber que ya no vendrás
Tu llorabas bastante mi amor
Me mirabas con grande dolor
En la radio una triste canción
La cual nos llenaba de pasión
Te abrase nada mas un instante
Doloroso trate de aguantarme
Y con llanto alcance a decirte
Palabras que por siempre recordare
Se repite el coro
pa la bandita
NNooeell

Video de Que nos pasó
[]




[Que nos pasó chords][Que nos pasó cifra]
© LaCuerda.net · aviso legal · privacidad · es · en · pt · contacto