Acordes de Guitarra » L »Leonel García » Para Empezar (Tab)

Para Empezar
Leonel García

Letras, Acordes y Tabs para Guitarra, Bajo y Ukulele

  •     Fmaj7  Amsus2   A#  Em7
    1|----0-------------1---------
    2|----1-------0-----1----3----
    3|----2-------2-----3----0----
    4|----3-------2-----3----0----
    5|----3-------0-----1----2----
    6|----------------------------
    
    Intro : Fmaj7 C Fmaj7 Amsus2 G
    
    --Versos--
    
                Fmaj7
    Que mas me da
                   C                             Am
    me preguntas que es lo que nos queda por salvar
                  D
    que para que quiero regresar,
                Fmaj7
    Que importa ya
    
  • Intro: F C F C Am G
    
                F
    Que mas me da
                    C                            Am
    me preguntas que es lo que nos queda por salvar
                   D7
    que para que quiero regresar
                 F
    que importa ya
                     C                         Am
    se han roto mil cosas que no quieres arreglar
                   D7
    quieres encontrar otro lugar
                   F
    pero al menos quiero contestar
                  Bb                            G
    porque no me rindo y quiero verte una vez más.
    
              C
    
  •   Fmaj7/E   Em7     E7   Gsus2
    1|----0----|---0---|---0---|---3---|
    2|----1----|---3---|---3---|---3---|
    3|----2----|---0---|---1---|---0---|
    4|----3----|---0---|---0---|---0---|
    5|----3----|---2---|---2---|---0---|
    6|----0----|---0---|---0---|---3---|
    
    Transcripción de https://www.youtube.com/watch?v=01NjPUvmboo
    Más original, imposible!
    
    
    Fmaj7/E C Fmaj7/E Em7 Gsus2
    
                Fmaj7/E
    Que más me da
                   C                Em7        Am
    Me preguntas que es lo que nos queda por salvar
                  D
    Que para que quiero regresar,
    
  •      F               C
    E |-----------------------------------|
    B |--1---3---1---3---1---3---1---3----|
    G |----2---2---2---0---0---0---0---0--|
    D |-----------------------------------|
    A |------------------3----------------|
    E |--1--------------------------------|
    
         F               Am      G
    E |----------------------------------3--|
    B |--1---3---1---3---1---3---3---3------|
    G |----2---2---2---0---2---2---0---0----|
    D |-------------------------------------|
    A |------------------0------------------|
    E |--1-----------------------3----------|
    
                F                C                             Am
    Que mas me da me preguntas que es lo que nos queda por salvar
                   D
    que para que quiero regresar
    
  •         F                    C                   F           Am     G
    e|------------------|----------0-------|-------------------|-------|---|
    B|------3---1---3---|-1----3-----3-1---|-------3---1---3---|-0-----|-0-|
    G|-2--------------2-|----------------0-|-2---------------2-|---2---|---|
    D|----3---3---------|----2---2---------|----3----3---------|-----2-|---|
    A|------------------|-3----------------|-------------------|-0-----|---|
    E|-1----------1-----|------------------|-1-----------1-----|-------|-3-|
    
    SOLO MIN 3:12 : F C F Am G
    
    e|-----------|-------|-----|-----------|-----|
    B|-----------|-------|-----|-----------|-----|
    G|-5-7-5-7-5-|-2-----|-----|-5-7-5-7-5-|-7-9-|
    D|-----------|---4h5-|-----|-----------|-----|
    A|-----------|-------|-6h7-|-----------|-----|
    E|-----------|-------|-----|-----------|-----|
    
    e|--------------|--------|---------|
    B|-13-12-10-----|-8------|---------|
    G|-12------12---|-5-5h77-|-----4-5-|
    
  • Bueno aqui les dejo la tab para bajo
    espero que les sirva y que
    la puedan tocar bien
    
    
    Que mas me da
    me preguntas que es lo que nos queda por salva
    que para que quiero regresar
    
    G-------------------------------------
    D-------------------------------------
    A----------3-3-3-2----------5-5-5-5---
    E--1-1-1-1---------5-5-5-5------------
    
    que importa ya
    se han roto mil cosas que no quieres arreglar
    quieres encontrar otro lugar
    pero al menos quiero contestar
    porque no me rindo y quiero verte una vez más.
    
    G-----------------------------------------------
    D-----------------------------------------------
    A----------3-3-3-2---5-5-5-5---------1-1-1-1----
    E--1-1-1-1---------5---------1-1-1-1---------3--
    
    Para empezar,
    haces que este mundo sea un mejor lugar
    cuando hablas llenas todo de verdad
    y haces que me olvide de la soledad.
    
    G-------------------------------------------------------------
    D-------------------------------------------------------------
    A--3-3-3-3-------------------------5-5-5-5--
  • +
    ¡Colabora con nosotros!
    Envíanos tu versión de esta canción
  • Tutorial
    Como Tocar (Para Empezar)
    De Leon Polar Garcia Guitarra Tutorial
    5:48

Letra de Para Empezar
--Versos--
Que mas me da
me preguntas que es lo que nos queda por salvar
que para que quiero regresar,
Que importa ya
se han roto mil cosas que no quieres arreglar
quieres encontrar otro lugar
pero al menos quiero contestar
porque no me rindo quiero verte una vez mas...
Para empezar
haces que este mundo sea un mejor lugar
cuando hablas llenas todo de verdad
y haces que me olvide de la soledad,
Para empezar
nunca quise envejecer con nadie mas
y nose que va a pasarme si te vas
--Versos--
Nos fue muy mal
los buenos momentos empezaron a faltar,
luego comenzamos a dudar
me asuste y no te pude parar
pero ni un segundo te he dejado de extrañar...
Para empezar
haces que este mundo sea un mejor lugar
cuando hablas llenas todo de verdad
ya haces que me olvide de la soledad,
Para empezar
nunca quise envejecer con nadie mas
y nose que va a pasarme si te vas
Para empezar
haces que este mundo sea un mejor lugar
cuando hablas llenas todo de verdad
ya haces que me olvide de la soledad...
Para Empezar...
Si tienen duda agreguenme.
www.facebook.com/AlexFabianChords
Cchecuu
Saludos desde Chiapas-México




[Para Empezar chords][Para Empezar cifra]
© LaCuerda.net · aviso legal · privacidad · es · en · pt · contacto